Oops, an error
Loading. Please wait.

Hayano Tab

405 views 1 this week
no commentswrite comment
1 2 3 4 5
please rate
add to favorites
launch autoscroll
font size
0
reset
how to read this tab
guitar tuner
Tab Pro tools
  • play this tab
  • loop segment
  • change instrument
  • show fretboard
  • metronome
×
Best way to learn
"Hayano"
Autoscroll
slow
fast
+/-
esc
set tempo
stop
Contributor
Difficulty
intermediate
51 Koodia - Hayano

Tabbed by: Tonoko?

Tuning: C G D G H e

PART A (Play this 4 times)

Guitar 1
|---------------------------------------------------------------------------|
|---------------------------------------------------------------------------|
|---------------------------------------------------------------------------|
|-------0---------0-h1-p0---------0-----------------------------------------| 
|-----3---------3---------------3---------1-h3-------0-h1-------0-----------|
|---5---------5---------------5---------5----------5----------5---(p)3-(h)5-|
|-0---------0---------------0---------0----------0----------0---------------|


Guitar 2 (third time)
|---------------------------------------------------------------------------|
|-----3-s4------3-s6-s4---------3-s4------1-s3-------3-h1-------3---1-------|
|-----------------------------------------------------------------3---------| x 2
|---------------------------------------------------------------------------|
|---------------------------------------------------------------------------|
|---------------------------------------------------------------------------|

PART B:

Guitar 1
|--------------------------------------------------------------------------------------------|
|--------------------------------------------------------------------------------------------|
|-----0--------0----------------------------------------------------------------------0-h3-p0|
|-------3--------3-------1-(h)3-------1-(h)3----1-(h)3-------1-(h)3-------3-3-------3--------|
|---5--------5---------1------------1---------0------------0------------3---------3----------|
|-0--------0---------0------------0---------0------------0------------0---------0------------|

Guitar 1
|--------------------------------------------------------------------------------------------------|
|--------------------------------------------------------------------------------------------------|
|-----0--------0---------------------------3-p0----------------------------------------------------|
|-------3--------3------1-(h)3------1-(h)3-----------1-(h)3-------1-(h)3-------3-3-------3-3-1-0---|
|---5--------5--------1-----------1----------------0------------0------------3---------3---------3-|
|-0--------0--------0-----------0----------------0------------0------------0---------0-------------|

PART A (with guitar 2)

FINE
comments
We did not receive enough feedback on this tab! Please rate:
print report bad tab
1 2 3 4 5
I want to post or [tab]
guest
You may want to rate the tab now too:
select rating
Please do not post tabs as comments. Select "correction" instead!