Oops, an error
Loading. Please wait.

Ocean Pearl Tab

version 1
version 1

Whole song

18,893 views 30 this week
2 commentsread comments
1 2 3 4 5
x 8
add to favorites
launch autoscroll
font size
0
reset
how to read this tab
guitar tuner
×
Best way to learn
"Ocean Pearl"
Autoscroll
slow
fast
+/-
esc
set tempo
stop
Song Title: Ocean Pearl
Artist: 54-40
Album: Smilin' Buddha Cabaret
Release Date: 1994
Music: 54-40
Lyrics: Neil Osbourne
Tabbed By: Matt Tulloch I've seen a couple other transcriptions of this song on the 'net, but they either 
don't sound as good, or are more complex than they need to be, so here's my 
version... and I know it sounds cliche to say this, but this is my first 
transcription (honestly) so bear with me :)Chords used:

    G5    B5    Em    Asus2    Dsus2
e|-------------------------------------|
B|-------------------------------3-----|
G|--------4-------------2--------2-----|
D|---5----4-----2-------2--------0-----|
A|---5----2-----2-------0--------------|
E|---3----------0----------------------|
Main Riff:
e|-----------------------------|
B|-----------------------------|
G|-----------------------------|
D|-----------0----------0------|
A|------0h2-----0--0h2---------|
E|---0---------------------0---|
(Play the main riff during all verses and the outro.)


Pre-chorus:
G5    B5   Em
O.....cean pearl!


Chorus:
Asus2     B5     Dsus2    Asus2    Asus2    B5    Dsus2    Em
(You get the picture...)

Solo:
(I couldn't figure the solo out, but the rythym guitar plays the main riff 4X.)


Lyrics:
(verse1)
Play a little kiss and tell with poison pills
Bitten in the valley of thirst, the body kills
I got an ocean pearl
I see an open world
(pre-chorus)
O...cean pearl!
(verse2)
You just have to whisper, promising the moon
And if she dares to dream, make it true
I got an ocean pearl
I see an open world
(pre-chorus)
O...cean pearl!
(chorus)
It's what I wanted
Cuz I'm only gonna do this once
Gonna wash me in your water
Put the "vive" back in "la difference" yeah
(solo)
(verse3)
I got an ocean pearl
And I'd die without my
(pre-chorus)
O....cean pearl!
(outro)
I got an ocean pearl
I got an ocean pearl
I got an ocean pearl
I got an ocean pearl
I got an ocean pearl


Enjoy.

Matt Tulloch
poison_elf@hotmail.com
http://www.golden.net/~tulloch/tab/radtab.htm
The Comprehensive radiohead Tablature Archives

===============


Ocean Pearl BY 54-40


Here is my first guitar tab. I will try to repay all the excellent tabs I have
used in the past. Mine will not be excellent but they will be a start.
If anyone wants to email me with questions,answers and flames my
address is szoke@res.com

Now on with my tab

OCEAN PEARL 

E----------------------------------
B----------------------------------
G----------------------------------
D----------------------------------
A---------0-2-5-0-----2-5-0--------
E--0-------------------------------

This is just the way i play it, if there is a better way please let me know
and if anyone knows that cool solo please post
Suggest correction
comments
print report bad tab
2 comments total.
0 reply
metallica_ben 10 May 15, 2006 04:21 PM

decent tab but needs solo

0 reply
berrylover16 10 Jul 13, 2010 07:06 PM

------------------------------------------------- R
------------------------------------------------- E
------------------------------------------------- P
------------------------------------------------- E
-----------------5----0---------------5---------- A
---0---5----7--------------5-----7--------------- T

That's how I do it. :3
And the Chorus,

--------------------------------------------------
--------------------------------------------------
--------------------------------------------------
---7-7-7-7-7-7-7-7---9-9-9-9-9-9-9-9--------------
---7-7-7-7-7-7-7-7---9-9-9-9-9-9-9-9--------------
---5-5-5-5-5-5-5-5---7-7-7-7-7-7-7-7--------------

guest
You may want to rate the tab now too:
select rating
Wanna post a correction for this tab? Suggest correction