Oops, an error
Loading. Please wait.

18 Tab

version 1
version 1

Whole song

41,756 views 171 this week
8 commentsread comments
1 2 3 4 5
excellent!
x 48
add to favorites
launch autoscroll
font size
0
reset
how to read this tab
guitar tuner
Tab Pro tools
  • play this tab
  • loop segment
  • change instrument
  • show fretboard
  • metronome
×
Best way to learn
"18"
Autoscroll
slow
fast
+/-
esc
set tempo
stop
Contributor
Difficulty
novice
-------------------------------------------------------------------------------
                             18 - 5 Seconds of Summer
-------------------------------------------------------------------------------

Tuning: EADGBe

Nice easy song, just play the chords as power chords.

e|---------------------------------------------------------------------------|
B|---------------------------------------------------------------------------|
G|---------------------------------------------------------------------------|
D|---------------------------------------------------------------------------|
A|------4-5-4-2-0------------------------------------------------------------|
E|--5-5-----------2-2-3-3-3-3------------------------------------------------|

Intro: A5 F#5 G5

A      F#m        G
I wish that I was eighteen,
A           
Do all the things,
F#m       G
You read in a magazine
A              F#m   G
I?m not saying I wanna be Charlie Sheen.


C     G    D


A             F#m   G
She?s just a little bit older,
A             F#m   G
But I want to get to know her,
A             F#m   G
But she said it's already over.


C     G    D


Em                         G
So tell me what else can I do?
I bought my fake ID for you.

D                       A
She told me to meet her there,
                       Em
I can?t afford the bus fare,
I?m not old enough for her,
G                  Gm
I?m just waiting ?til I?m eighteen.


e|---------------------------------------------------------------------------|
B|---------------------------------------------------------------------------|
G|---------------------------------------------------------------------------|
D|---------------------------------------------------------------------------|
A|------4-5-4-2-0------------------------------------------------------------|
E|--5-5-----------2-2-3-3-3-3------------------------------------------------|

Intro: A F#m G

A       F#m               G
I think she wants to get with me,
A               F#m        G
But she?s got a job in the city,
A               F#m        G
Says that she?s always too busy.


C     G    D

A             F#m   G
She?s got a naughty tattoo,
A               F#m       G
In a place that I want to get to,
A          F#m            G
But my mom still drives me to school.


C    G    D

Em                         G
So tell me what else can I do?
I bought my fake ID for you.



D                       A
She told me to meet her there,
                       Em
I can?t afford the bus fare,
I?m not old enough for her,
G                  Gm
I?m just waiting ?til I?m eighteen.
D                       A
You got me waiting in a queue,
                      Em
For a bar I can?t get into,
I?m not old enough for you,
G                 Gm
I?m just waiting ?til I?m eighteen.


[Use octave power chords for the break]
B  C#m  D  G  E  D

B
In my bedroom thinking of ya,

B  C#m  D  G  E  D
B
Her pictures in my private folder,

B  C#m  D  G  E  D
D
I know one day that I will hold her,

B  C#m  D  G  E
Em
I?ll make my move when I get older.
G
Make my move when I get older.


e|---------------------------------------------------------------------------|
B|---------------------------------------------------------------------------|
G|---------------------------------------------------------------------------|
D|---------------------------------------------------------------------------|
A|------4-5-4-2-0------------------------------------------------------------|
E|--5-5-----------2-2-3-3-3-3------------------------------------------------|

e|---------------------------------------------------------------------------|
B|---------------------------------------------------------------------------|
G|---------------------------------------------------------------------------|
D|---------------------------------------------------------------------------|
A|------4-5-4-2-0------------------------------------------------------------|
E|--5-5-----------2-2-3-3-3-3------------------------------------------------|

D                       A
She told me to meet her there,
                       Em
I can?t afford the bus fare,
I?m not old enough for her,
G                  Gm
I?m just waiting ?til I?m eighteen.
D                       A
You got me waiting in a queue,
                      Em
For a bar I can?t get into,
I?m not old enough for you,
G                 Gm
I?m just waiting ?til I?m eighteen.

G              Gm               D
I'm so sick of waiting 'til I'm eighteen.
comments
print report bad tab
8 comments total. Showing first comments.
+1 reply
Pizza_Is_Life24 wrote on July 4 2014, 07:45 pm

Strumming pattern?

+1 reply
JamieGilder wrote on July 5 2014, 01:02 pm

Listen to the track. It's pretty easy.

0 reply
mila_ wrote on August 29 2014, 01:28 pm

This isn't really a tab, all it is is the intro and the rest is chords...

I want to post or [tab]
guest
You may want to rate the tab now too:
select rating
Please do not post tabs as comments. Select "correction" instead!