Oops, an error
Loading. Please wait.

Airplanes tab

version 1
version 1

Whole song

7,795 views 18 this week
2 commentsread comments
1 2 3 4 5
x 9
add to favorites
×
Save as Personal and add changes to this tab that will be seen only by you. Learn more ›
×
You can save this tab as Personal to edit and correct it or add notes. All changes will be seen only by you. Learn more »
launch autoscroll
font size
0
reset
how to read this tab
guitar tuner
edit
Autoscroll
slow
fast
+/-
esc
set tempo
stop
Author
Difficulty
Standard Tuning

[Chords]
C- 035500
G- 355000
D- 057700

[Intro]
e|--------------------------------------------------------------------|
B|--------------------------------------------------------------------|
G|--5-------7---5--------9/-10\--------5-5------9/-10\--------5-5-----|  
D|------5------------------------(x4)------------------(x4)-----------| x2
A|--3---3---5---3--------7/-8\---------3-3------7/-8\---------3-3-----|
E|--------------------------------------------------------------------|

[Verse]
Most of my life, I sat on my hands, I don't make a sound
e|--10h12---8-----|
B|----------------|
G|----------------|
D|----------------|
A|----------------|
E|----------------|

Getting it right, I made all my plans, lost, never found

e|--10h12---8-----|
B|----------------|
G|----------------|
D|----------------|
A|----------------|
E|----------------|

C                G
Your eyes, your smile can light up the 
night, night

e|---------------------------------|
B|---------------------------------|
G|--5/-9---5/------9/-10\----------|
D|-------------------------(x3)----|
A|--3/-7---3/------7/-8\-----------|
E|---------------------------------|

C           G
embers and neon signs paint up our 
sky, sky

e|------------------|
B|------------------|
G|--5/-9---5/---12--|
D|------------------|
A|--3/-7---3/---10--|
E|------------------|

[Chorus]
C          G
Airplanes cut through the clouds
       D
Like angels can fly, we'll never die

e|----------------------|
B|----------------------|
G|-----9/-10\-----------|
D|--------------(x3)----|
A|-----7/-8\------------|
E|----------------------|

C       G
Sirens cut through the night
        D
Like screams that are fire, rising up high

e|----------------------|
B|----------------------|
G|-----9/-10\-----------|
D|--------------(x3)----|
A|-----7/-8\------------|
E|----------------------|

Like I've something to prove, nothing to lose, in this city, in this city,

e|------------------------------------------------|
B|------------------------------------------------|
G|--5--------7--------9------- 12-------17--------|
D|----(x3)-----(x3)-----(x3)------(x3)-----(x8)---|
A|--3--------5--------7--------10-------15--------|
E|------------------------------------------------|

woah

e|----------------------|
B|----------------------|
G|-----9/-10\-----------|
D|----------------------|
A|-----7/-8\------------|
E|----------------------|

[Instrumental]
e|--------------------------------------------------------------------|
B|--------------------------------------------------------------------|
G|--5-------7---5--------9/-10\--------5-5------9/-10\--------5-5-----|  
D|------5------------------------(x4)------------------(x4)-----------| x2
A|--3---3---5---3--------7/-8\---------3-3------7/-8\---------3-3-----|
E|--------------------------------------------------------------------|

[Verse 2]
All of this time, I questioned myself, I never could wait

e|--10h12---8-----|
B|----------------|
G|----------------|
D|----------------|
A|----------------|
E|----------------|

Looking for signs, not asking for help, I know it's too late

e|--10h12---8-----|
B|----------------|
G|----------------|
D|----------------|
A|----------------|
E|----------------|
           
C                 G
A love lost and buried here, it comes to life, life

e|---------------------------------|
B|---------------------------------|
G|--5/-9---5/------9/-10\----------|
D|-------------------------(x3)----|
A|--3/-7---3/------7/-8\-----------|
E|---------------------------------|

C               G
Make believe worlds make us all feel alive, live

e|------------------|
B|------------------|
G|--5/-9---5/---12--|
D|------------------|
A|--3/-7---3/---10--|
E|------------------|

[Chorus]
C          G
Airplanes cut through the clouds
       D
Like angels can fly, we'll never die

e|----------------------|
B|----------------------|
G|-----9/-10\-----------|
D|--------------(x3)----|
A|-----7/-8\------------|
E|----------------------|

C       G
Sirens cut through the night
        D
Like screams that are fire, rising up high

e|----------------------|
B|----------------------|
G|-----9/-10\-----------|
D|--------------(x3)----|
A|-----7/-8\------------|
E|----------------------|

Like I've something to prove, nothing to lose, in this city, in this city,

e|------------------------------------------------|
B|------------------------------------------------|
G|--5--------7--------9------- 12-------17--------|
D|----(x3)-----(x3)-----(x3)------(x3)-----(x8)---|
A|--3--------5--------7--------10-------15--------|
E|------------------------------------------------|

woah

e|----------------------|
B|----------------------|
G|-----9/-10\-----------|
D|----------------------|
A|-----7/-8\------------|
E|----------------------|

[Bridge]
I never wanna wait for this, harder that I was made for this

e|------------------------|
B|------------------------|
G|--12---------5--5-------| x2
D|------(x7)--------------|
A|--10---------3--3-------|
E|------------------------|

I won't fade into dark

e|------------------------|
B|------------------------|
G|---7---------9----------|
D|-----(x6)------(x6)-----|
A|---5---------7----------|
E|------------------------|

I'm not gonna say that I'm sorry, gonna see the end of this story

e|------------------------|
B|------------------------|
G|--12---------5--5-------| x2
D|------(x7)--------------|
A|--10---------3--3-------|
E|------------------------|

I won't fade into darkness

e|----------------------------------------|
B|----------------------------------------|
G|--7--------9--------12-------17---------|
D|-----(x8)-----(x4)-----(x4)-----(x12)---|
A|--5--------7--------10-------15---------|
E|----------------------------------------|

[Solo]
e|---------------------------------------------------------------------------------------------------|
B|---------------------------------------------------------------------------------------------------|
G|----5/12--------14--14--14--14--13--13--13--10-9------13--10--9---9h10-9h10-9h10-9h10--------------|
D|-----------10------------------------------------10------------------------------------------------|
A|---------------------------------------------------------------------------------------------------|
E|---------------------------------------------------------------------------------------------------|

e|-------------------------------------------------------------------------|
B|---17---------------17--20--18-------------------------------------------|
G|-------17--16--17---------------19--17--16--17--19------11b---13b---14b--|
D|-------------------------------------------------------------------------|
A|-------------------------------------------------------------------------|
E|-------------------------------------------------------------------------|

[Chorus]
C*         G*                             (you can do one strum or none at all)
Airplanes cut through the clouds
Like angels can fly

e|-------------13b-----------|
B|---------------------------|
G|---------------------------|
D|---------------------------|
A|---------------------------|
E|---------------------------|

we'll never die

(rest of the chords from the chorus)

[Outro]
e|--------------------------------------------------------------------|
B|--------------------------------------------------------------------|
G|--5-------7---5--------9/-10\--------5-5------9/-10\--------5-5-----|  
D|------5------------------------(x4)------------------(x4)-----------| x2
A|--3---3---5---3--------7/-8\---------3-3------7/-8\---------3-3-----|
E|--------------------------------------------------------------------|


************************************

| /  Slide up
| \  Slide down
| h  Hammer-on
| b  Bend

************************************

            
            
Suggest correction
Creating personal tab
Creating personal tab
You can edit any tab online and save it as your Personal.

You can edit, replace or remove any tab part or add personal notes – all changes will be seen only by you.

Personal tabs can be accessed anytime from any device, even offline.
Learn more »
comments
print report bad tab
2 comments total.
0 reply
ninapipala 10 Oct 25, 2015 03:09 PM

It seems like an accurate tab, so good job!

+3 reply
cristinemaria79 10 Dec 16, 2015 09:48 AM

in the solo I think 12 is more accurate than 13

guest
You may want to rate the tab now too:
select rating
Wanna post a correction for this tab? Suggest correction