Oops, an error
Loading. Please wait.

Airplanes tab

version 2
version 2

Whole song

1,750 views 3 this week
no commentswrite comment
1 2 3 4 5
2 more votes to show rating
add to favorites
×
Save as Personal and add changes to this tab that will be seen only by you. Learn more ›
×
You can save this tab as Personal to edit and correct it or add notes. All changes will be seen only by you. Learn more »
launch autoscroll
font size
0
reset
how to read this tab
guitar tuner
edit
Autoscroll
slow
fast
+/-
esc
set tempo
stop
Author
Difficulty
intermediate
-----------------------------------------------------------------------------
                 AIRPLANES - 5 Seconds Of Summer
-----------------------------------------------------------------------------
E-mail: a7xlucas@live.com

Tuning: Drop D (DADGBe)

Guitar 1 - Luke Hemmings
Guitar 2 - Michael Clifford

Check out my cover on YouTube!: https://www.youtube.com/watch?v=stv0zwNsyFY

The very fast part in the solo is, well, very hard to play but it shows 5sos can really shred :) I put an 
"easier" version for the fast part beside each of the parts, it's all eighth notes instead of sixteenth notes 
or whatever they really are haha.

Intro, 2x:

Guitar 1
e|---------------------------------------------------------------------------------|
B|---------------------------------------------------------------------------------|
G|-5p4--4~-4-7~-7~-/77-7-7-55-5~--9/10-9/10-9/10-9~--------9/10-9/10-9/10-9~-------|
D|-5~~~-5~-5-5~-5~------------------------------------5-5----------------------5-5-|
A|-3~~~-3~-3-3~-3~-/55-5-5-33-3~--7/8--7/8--7/8--7~---3-3--7/8--7/8--7/8--7~---3-3-|
E|---------------------------------------------------------------------------------|
                                                      * *                      * *
Guitar 2
e|----------------------------------------------------------------------------|
B|----------------------------------------------------------------------------|
G|-5p4--4~-4-7~-7~-/77-7-7-55-5~---5~--5~--5~--5~--------5~--5~--5~--5~-------|
D|-5~~~-5~-5-5~-5~----------------------------------5-5-------------------5-5-|
A|-3~~~-3~-3-3~-3~-/55-5-5-33-3~---3~--3~--3~--3~---3-3--3~--3~--3~--3~---3-3-|
E|----------------------------------------------------------------------------|
                                                    * *                   * *
Verse (guitar 1 only):
   C C/B G  F                                    Am   
e|-0-----3--1--------------------3--1------------5--3------------------------------------|
B|-1--1--3--1-----------------1--3--1------------5--3--------5h6-5h6-5~-------5h6-5h6-5~-|
G|-0--0--0--2----10~-9~-5~----0--0--2----10~-9~--5--0------------------------------------|
D|-2--0--0--3-----------------0--0--3------------7--0--3~3~3~-----------3~3~3~-----------|
A|-3--2--2--3----8~--7~-3~----2--2--3----8~--7~--7--2--3~3~3~-----------3~3~3~-----------|
E|-------3--1--------------------3--1------------5--3--1~1~1~-----------1~1~1~-----------|

e|-5--3---------------------------------|
B|-5--3--3~3~3~3~3~3~-------------------|
G|-5--0--2~2~2~2~2~2~-------------------|
D|-7--0--0~0~0~0~0~0~-3~3~3~3~3~3~------|
A|-7--2---------------3~3~3~3~3~3~------|
E|-5--3---------------1~1~1~1~1~1~------|

Chorus:

Guitar 1                                                  Guitar 2
e|---------------------------------------------------2x-||-----12~~~~~--------------------12~~~~~-----1x-|
B|-------1~---------------------------------------------||-13~-------12~--13~~~-------13~-------12~~~----|
G|-5~-5~-0~-----12~-10~-9~-5~---12~-10~-9~-9/10-9/10-9~-||-------------------------------------------14~-|
D|-5~-5~-0~---------------------------------------------||-----------------------------------------------|
A|-3~-3~-2~-----10~-8~--7~-3~---10~-8~--7~-7/8--7/8--7~-||-----------------------------------------------|
E|------------------------------------------------------||-----------------------------------------------|

Chorus Pt. 2: 

Guitar 1                                                                      Guitar 2 (hard to hear)
e|------------------------------------------------------------------------.-||-----------------|
B|-------------------------------------------------------17~17~17~17~17~17~-||-----------------|
G|-7~7~7~-9~9~9~-10~10~10~-12~12~12~-/17~17~17~17~17~17~--------------------||-----------------|
D|-------------------------------------------------------14~14~14~14~14~14~-||---------3~------|
A|-5~5~5~-7~7~7~-8~-8~-8~--10~10~10~-/15~15~15~15~15~15~--------------------||-5~--x12-3~--x12-|
E|--------------------------------------------------------------------------||---------1~------|

Bridge:

Guitar 1
e|-0000000--0--0--0000000--0--0--------------------------2x-|--------------------------------------|
B|-1111111--1--1--1111111--1--1-----------------------------|--------------------------------------|
G|-2222222--2--2--2222222--2--2---------------5~5~5~-4~4~4~-|--------------(silence)---------------|
D|-2222222--2--2--2222222--2--2--3~3~3~3~3~3~-5~5~5~-5~5~5~-|--------------------------------------|
A|-0000000--0--0--0000000--0--0--3~3~3~3~3~3~-3~3~3~-2~2~2~-|--------------------------------------|
E|-------------------------------1~1~1~1~1~1~---------------|--------------------------------------|

Guitar 2 (hard to hear)
e|----------------------------------0~-------------------2x-|--------------------------------------|
B|-------------------------------6~-------------------------|--------------------------------------|
G|-5555555--5--5--9999999--9--9--------5~~~~~~~~~~~~~-------|-7~7~7~-9~9~9~-10~10~10~/151515151515-|
D|----------------------------------------------------------|--------------------------------------|
A|-3333333--3--3--7777777--7--7-----------------------------|-5~5~5~-7~7~7~-8~-8~-8~-/131313131313-|
E|----------------------------------------------------------|--------------------------------------|
                                                                   In my guitar cover on YouTube I
SOLO:                                                               played a different chord here^
                                                                             that's wrong, sorry!
Guitar 1
e|----------------------15-13-12---15-13-12--------------------------10-12~-------||-------------10-12~-||
B|-----------------------------------------------------------10-12-13------13~----||--------10-13-------||
G|-12~\5~-/14~14~14~~~~-12-10-9-5~-12-10-9-9-10-12-10-9-10-12-----------------12~-||-9-10-12------------||
D|--------------------------------------------------------------------------------||--------------------||
A|--------------------------------------------------------------------------------||--------------------||
E|--------------------------------------------------------------------------------||--------------------||
                                                                                    Fast part easier way
Guitar 1 cont'd
e|----12~/15~-13~------------------------/10~---/12~-------|
B|-13~-----------15~-12~---12~-15~-13~-----------------13~-|
G|----------------------12~--------------------------------|
D|---------------------------------------------------------|
A|---------------------------------------------------------|
E|---------------------------------------------------------|

Guitar 2
e|-----12~---------------------------------------------------5-7-8~-------||-----------7-8~-||
B|---------------12~----13~--------------------5-------5-6-8--------8~-5~-||-----5-6-8------||
G|-----------------------------------------5-7---7-5-7--------------------||-5-7------------||
D|------------------------------------------------------------------------||----------------||
A|------------------------------------------------------------------------||----------------||
E|------------------------------------------------------------------------||----------------||
                                                                           Fast part easier way
Guitar 2 cont'd
e|----8~-/12~-10~-------------------------------------------------|
B|-8~-------------12~------------12~-10~----/12~---/13~-----------|
G|--------------------12~-9~-12~---------------------------12~----|
D|----------------------------------------------------------------|
A|----------------------------------------------------------------|
E|----------------------------------------------------------------|

Prechorus 3:

Guitar 1                                                       
e|--------------------------------*1~-11~-11~~~~-1111-------------||-15~-----| Guitar 2 plays
B|-1~-11~-11~-1111-3~-33~-33~-3333-1~-11~-11~~~~-1111-------------||---------| this at the *
G|-0~-00~-00~-0000-0~-00~-00~-0000-2~-22~-22~~~~-2222-------------||---------| 
D|-2~-22~-22~-2222-0~-00~-00~-0000-3~-33~-33~~~~-3333---(pause)---||---------|
A|-3~-33~-33~-3333-3~-33~-33~-3333-3~-33~-33~~~~-3333-------------||---------|
E|---------------------------------1~-11~-11~~~~-1111-------------||---------|

Final chorus:

Guitar 1                                                     Guitar 2
e|---------------------------------------------------------||--------12~~~~~------------|
B|-------1~------------------------------------------------||-13~------------12~~~------|
G|-5~-5~-0~-----12~-10~-9~-5~----12~-10~-9~-9/10-9/10-9~---||---------------------14~---|
D|-5~-5~-0~------------------------------------------------||---------------------------|
A|-3~-3~-2~-----10~-8~--7~-3~----10~-8~--7~-7/8--7/8--7~---||---------------------------|
E|---------------------------------------------------------||---------------------------|

Final chorus Pt. 2:

Guitar 1                                                                      Guitar 1
e|------------------------------------------------------------------------.-||-----------------|
B|-------------------------------------------------------17~17~17~17~17~17~-||-----------------|
G|-7~7~7~-9~9~9~-10~10~10~-12~12~12~-/17~17~17~17~17~17~--------------------||-----------------|
D|-------------------------------------------------------14~14~14~14~14~14~-||---------3~------|
A|-5~5~5~-7~7~7~-8~-8~-8~--10~10~10~-/15~15~15~15~15~15~--------------------||-5~--x12-3~--x12-|
E|--------------------------------------------------------------------------||---------1~------|

Repeat:
Intro 2x

            
            
Suggest correction
Creating personal tab
Creating personal tab
You can edit any tab online and save it as your Personal.

You can edit, replace or remove any tab part or add personal notes – all changes will be seen only by you.

Personal tabs can be accessed anytime from any device, even offline.
Learn more »
Give kudos to tab author, rate the tab!
1 2 3 4 5
comments
print report bad tab
guest
You may want to rate the tab now too:
select rating
Wanna post a correction for this tab? Suggest correction