Oops, an error
Loading. Please wait.

American Idiot Bass Tab

13,851 views 60 this week
no commentswrite comment
1 2 3 4 5
accurate
x 6
add to favorites
launch autoscroll
font size
0
reset
guitar tuner
Tab Pro tools
  • play this tab
  • loop segment
  • change instrument
  • show fretboard
  • metronome
×
Best way to learn
"American Idiot"
Autoscroll
slow
fast
+/-
esc
set tempo
stop
Contributor
Difficulty
intermediate
  Intro 0:13
G|-------------------------------------------------------------------|
D|-------------------------------------------------------------------|
A|---------5---5---------5-----------------5---5---------5-----------|
E|-\-5-5-----------3---3-----5-5-3---5-5-----------3---3-----5-5-3---|
   + 1 + 2 + 3 + 4 + 1 + 2 + 3 + 4 + 1 + 2 + 3 + 4 + 1 + 2 + 3 + 4 +

G|-----------------------------------------------------------------|
D|-----------------------------------------------------------------|
A|-------5---5---------5-----------------5---5---------5-----------|
E|-5-5-----------3---3-----5-5-3---5-5-----------3---3-----5-5-3---|
   1 + 2 + 3 + 4 + 1 + 2 + 3 + 4 + 1 + 2 + 3 + 4 + 1 + 2 + 3 + 4 +

  Verse 0:24
G|-------------------------------------------------------------------|
D|o-----------------------------------------------------------------o|
A|o---------------------------------------5---5---------5-----------o|
E|--------------------------------\-5-5-----------3---3-----5-5-3----|x4
    1 + 2 + 3 + 4 + 1 + 2 + 3 + 4 + 1 + 2 + 3 + 4 + 1 + 2 + 3 + 4 +

  Chorus 0:44
G|-----------------------------------------------------------------|
D|-----------------------------------------------------------------|
A|-5-5-5-5-5-5-5-5---5-5---5-5-5---0-0-0---0-0-0-0---0-0---0-0-0-0-|
E|-----------------------------------------------------------------|
   1 + 2 + 3 + 4 + 1 + 2 + 3 + 4 + 1 + 2 + 3 + 4 + 1 + 2 + 3 + 4 +

G|-----------------------------------------------------------------|
D|-----------------------------------------------------------------|
A|---------------------------------0-0-0---0-0-0-0---0-0---0-0-0-0-|
E|-0-0-0-0-0-0-0-0---0-0---0-0-0-----------------------------------|
   1 + 2 + 3 + 4 + 1 + 2 + 3 + 4 + 1 + 2 + 3 + 4 + 1 + 2 + 3 + 4 +

G|-----------------------------------------------------------------|
D|-----------------------------------------------------------------|
A|-5-5-5-5-5-5-5-5---5-5---5-5-5---0-0-0---0-0-0-0---0-0---0-0-0-0-|
E|-----------------------------------------------------------------|
   1 + 2 + 3 + 4 + 1 + 2 + 3 + 4 + 1 + 2 + 3 + 4 + 1 + 2 + 3 + 4 +

G|-----------------------------------------------------------------|
D|-----------------------------------------------------------------|
A|-----------------------------------------------------------------|
E|-0-0-0-0-0-0-0-0---0-0---0-0-0---------------------------------\-|
   1 + 2 + 3 + 4 + 1 + 2 + 3 + 4 + 1 + 2 + 3 + 4 + 1 + 2 + 3 + 4 +

  Intro 1:04
G|-----------------------------------------------------------------|
D|-----------------------------------------------------------------|
A|-------5---5---------5-----------------5---5---------5-----------|
E|-5-5-----------3---3-----5-5-3---5-5-----------3---3-----5-5-3---|
   1 + 2 + 3 + 4 + 1 + 2 + 3 + 4 + 1 + 2 + 3 + 4 + 1 + 2 + 3 + 4 +

  Verse 1:09
G|-------------------------------------------------------------------|
D|o-----------------------------------------------------------------o|
A|o---------------------------------------5---5---------5-----------o|
E|--------------------------------\-5-5-----------3---3-----5-5-3----|x3
    1 + 2 + 3 + 4 + 1 + 2 + 3 + 4 + 1 + 2 + 3 + 4 + 1 + 2 + 3 + 4 +

G|-----------------------------------------------------------------|
D|-----------------------------------------------------------------|
A|---------------------------------------5---5---0-0-0-0-0-0-0-0-0-|
E|-------------------------------\-5-5-----------------------------|x1
   1 + 2 + 3 + 4 + 1 + 2 + 3 + 4 + 1 + 2 + 3 + 4 + 1 + 2 + 3 + 4 +

  Chorus 1:29
G|-----------------------------------------------------------------|
D|-----------------4---------------------------------------2-------|
A|-5-5-5-5-5-5-5-5-----7---5---7---0-0-0---0-0-0-5---2-4-------4---|
E|-----------------------------------------------------------------|
   1 + 2 + 3 + 4 + 1 + 2 + 3 + 4 + 1 + 2 + 3 + 4 + 1 + 2 + 3 + 4 +

G|-----------------------------------------------------------------|
D|-----------------------------------------------------------------|
A|---------------------------------0-0-0---0-0-0-0---0-0---0-0-0-0-|
E|-0-0-0-0-0-0-0-0---0-0---0-0-0-----------------------------------|
   1 + 2 + 3 + 4 + 1 + 2 + 3 + 4 + 1 + 2 + 3 + 4 + 1 + 2 + 3 + 4 +

G|-----------------------------------------------------------------|
D|-----------------4-----------------------------------------------|
A|-5-5-5-5-5-5-5-5-----7---5-5-7---0-0-0---0-0-0-4---5---7---5---4-|
E|-----------------------------------------------------------------|
   1 + 2 + 3 + 4 + 1 + 2 + 3 + 4 + 1 + 2 + 3 + 4 + 1 + 2 + 3 + 4 +

G|-----------------------------------------------------------------|
D|-----------------------------------------------------------------|
A|-----------------------------------------------------------------|
E|-0-0-0-0-0-0-0-0---0-0---0-0-0---------------------------------\-|
   1 + 2 + 3 + 4 + 1 + 2 + 3 + 4 + 1 + 2 + 3 + 4 + 1 + 2 + 3 + 4 +

  Bridge 1:49                        Interlude (Micro Bass Solo!)
G|---------------------------------|--------------------------------|
D|---------------------------------|-----5/7-------5----------------|
A|-------5---5---------5-----------|-0---------5-7-----7---5-4------|
E|-5-5-----------3---3-----5-5-3---|--------------------------------|
   1 + 2 + 3 + 4 + 1 + 2 + 3 + 4 +

                                    Drum Solo
G|---------------------------------|---------------------------------|
D|---------------------------------|---------------------------------|
A|-------5---5---------5-----------|---------------------------------|
E|-5-5-----------3---3-----5-5-3---|---------------------------------|
   1 + 2 + 3 + 4 + 1 + 2 + 3 + 4 +   1 + 2 + 3 + 4 + 1 + 2 + 3 + 4 +

  1:59
G|-----------------------------|
D|-----------------------------|
A|-------5---5---------5-------|
E|-5-5-----------3---3-----5-3-|

  Guitar Solo 2:02
G|-----------------------------------------------------------------|
D|-----------------------------------------------------------------|
A|-5-5-5-5-5-5-5-5---5-5---5-5-5---0-0-0---0-0-0-0---0-0---0-0-0-0-|
E|-----------------------------------------------------------------|
   1 + 2 + 3 + 4 + 1 + 2 + 3 + 4 + 1 + 2 + 3 + 4 + 1 + 2 + 3 + 4 +

G|-----------------------------------------------------------------|
D|-----------------------------------------------------------------|
A|---------------------------------0-0-0---0-0-0-0---0-0---0-0-0-0-|
E|-0-0-0-0-0-0-0-0---0-0---0-0-0-----------------------------------|
   1 + 2 + 3 + 4 + 1 + 2 + 3 + 4 + 1 + 2 + 3 + 4 + 1 + 2 + 3 + 4 +

G|-----------------------------------------------------------------|
D|-----------------------------------------------------------------|
A|-5-5-5-5-5-5-5-5---5-5---5-5-5---0-0-0---0-0-0-0---0-0--(0)(0)(0)|
E|-----------------------------------------------------------------|
   1 + 2 + 3 + 4 + 1 + 2 + 3 + 4 + 1 + 2 + 3 + 4 + 1 + 2 + Triplet

G|---------------------------------|
D|---------------------------------|
A|---------------------------------|
E|-0-0-0-0-0-0-0-0---0-0---0-0-0---|
   1 + 2 + 3 + 4 + 1 + 2 + 3 + 4 +

Rest

  Chorus 2:34
G|-----------------------------------------------------------------|
D|-----------------------4-----------------------------------------|
A|-5-5-5-5-5-5-5-5---7-------7--5--0-0-0---0-0-0-0---0-0---0-0-0-0-|
E|-----------------------------------------------------------------|
   1 + 2 + 3 + 4 + 1 + 2 + 3 + 4 + 1 + 2 + 3 + 4 + 1 + 2 + 3 + 4 +

G|-----------------------------------------------------------------|
D|-----------------------------------------------------------------|
A|---------------------------------0-0-0---0-0-0-0---0-0---0-0-0-0-|
E|-0-0-0-0-0-0-0-0---0-0---0-0-0-----------------------------------|
   1 + 2 + 3 + 4 + 1 + 2 + 3 + 4 + 1 + 2 + 3 + 4 + 1 + 2 + 3 + 4 +

G|-----------------------------------------------------------------|
D|-----------------------4-----------------------------------------|
A|-5-5-5-5-5-5-5-5---7-------7--5--0-0-0---0-0-0-0---0-0---0-0-0-0-|
E|-----------------------------------------------------------------|
   1 + 2 + 3 + 4 + 1 + 2 + 3 + 4 + 1 + 2 + 3 + 4 + 1 + 2 + 3 + 4 +

G|---------------------------------|
D|---------------------------------|
A|---------------------------------|
E|-0-0-0-0-0-0-0-0---0-0---0-0-0---|
   1 + 2 + 3 + 4 + 1 + 2 + 3 + 4 +

  Outro
G|-----------------------------------------------------------------|
D|-----------------------------------------------------------------|
A|---------------------------------------------------5---5---------|
E|---------------------------------------------------------3-------|
   1 + 2 + 3 + 4 + 1 + 2 + 3 + 4 + 1 + 2 + 3 + 4 + 1 + 2 + 3 + 4 +

G|-----------------------------------------------------------------|
D|-----------------------------------------------------------------|
A|-------------------5---5---------------------------5-5-5---------|
E|-5-----4-----3-----------5-------5-----4-----3-----------5-------|
   1 + 2 + 3 + 4 + 1 + 2 + 3 + 4 + 1 + 2 + 3 + 4 + 1 + 2 + 3 + 4 +

Tabbed By Jack Mills
comments
print report bad tab
I want to post or [tab]
guest
You may want to rate the tab now too:
select rating
Please do not post tabs as comments. Select "correction" instead!