Oops, an error
Loading. Please wait.

Amnesia Tab

version 2
version 2

Intro

Whole song

Interactive

9,571 views 6 this week
2 commentsread comments
1 2 3 4 5
accurate
x 3
add to favorites
launch autoscroll
font size
0
reset
how to read this tab
guitar tuner
Autoscroll
slow
fast
+/-
esc
set tempo
stop
Help us to improve Ultimate-Guitar.com Take our survey!
×
Author
Capo
2nd fret
-------------------------------------------------------------------------------
                             Amnesia - 5 Seconds Of Summer
-------------------------------------------------------------------------------
Tabbed by: McKenzie R.
E-mail: momily34@gmail.com

Tuning: Standard

Capo on 2nd

e|------0-------0-------0h1------------------------------------------------|
B|--1-------1-------1---------1---1----------------------------------------|
G|-------------------------------------------------------------------------|
D|----------------3---3-----3---3------------------------------------------|
A|3---3---3---3------------------------------------------------------------|
E|-------------------------------------------------------------------------|


************************************

| /   slide up
| \   slide down
| h   hammer-on
| p   pull-off
| ~   vibrato
| +   harmonic
| x   Mute note
| b   Bend
| pb  Pre-bend
| br  Bend release
| pbr Pre-bend release
| brb Bend release bend

************************************
Suggest correction
Give kudos to tab author, rate the tab!
1 2 3 4 5
comments
print report bad tab
2 comments total.
0 reply
daniquebuchne1 10 wrote on January 15 2015, 10:39 am

Clearly wrong. this does not even sound like the original song, the tab is played on a D-chord. sorry for my bad english

0 reply
rqr707 10 wrote on January 30 2015, 06:40 pm

It's with capo ;) so it is D chord :)

guest
You may want to rate the tab now too:
select rating
Wanna post a correction for this tab? Suggest correction