Oops, an error
Loading. Please wait.
We have an official Amnesia tab made by UG professional guitarists. Check out the tab »
×

Amnesia Live tab

version 10
version 10

Whole song

Interactive

Video

283 views 15 this week
no commentswrite comment
1 2 3 4 5
2 more votes to show rating
add to favorites
×
Save as Personal and add changes to this tab that will be seen only by you. Learn more ›
×
You can save this tab as Personal to edit and correct it or add notes. All changes will be seen only by you. Learn more »
launch autoscroll
font size
0
reset
how to read this tab
guitar tuner
edit
Autoscroll
slow
fast
+/-
esc
set tempo
stop
This is how Michael plays Amnesia live in his acoustic guitar


Intro:

c|-----------5-----------5---------4h5----------------|
G|-----4-----------4-----------4-----------4-----4----|
F|--2-----2-----2-----2-------------------------------|
C|--------------------------5----5------5-----5-------|
G|----------------------------------------------------|
C|----------------------------------------------------|

(Repeat two times)

Verse 1:

c|-----------5-----------5---------4h5----------------|
G|-----4-----------4-----------4-----------4-----4----|
F|--2-----2-----2-----2-------------------------------|
C|--------------------------5----5------5-----5-------|
G|----------------------------------------------------|
C|----------------------------------------------------|

c|-----------5-----------5---------4h5----------------|
G|-----4-----------4-----------4-----------4-----4----|
F|--2-----2-----2-----2-------------------------------|
C|--------------------------5----5------5-----5-------|
G|----------------------------------------------------|
C|----------------------------------------------------|

c|-----------5---------------------4h5------4---------|
G|-----4-----------4-----------4----------------------|
F|----------------------------------------------------|
C|--2-----2-----2-----4-----5----5------5-------------|
G|----------------------------------------------------|
C|----------------------------------------------------|

c|-----------5-----------5---------4h5----------------|
G|-----4-----------4-----------4-----------4-----4----|
F|--2-----2-----2-----2-------------------------------|
C|--------------------------5----5------5-----5-------|
G|----------------------------------------------------|
C|----------------------------------------------------|

c|-----------5-----------5---------4h5----------------|
G|-----4-----------4-----------4-----------4-----4----|
F|--2-----2-----2-----2-------------------------------|
C|--------------------------5----5------5-----5-------|
G|----------------------------------------------------|
C|----------------------------------------------------|

c|-----------5---------------------4h5-----4~~--------|
G|-----4-----------4-----------4----------------------|
F|----------------------------------------------------|
C|--2-----2-----2-----4-----5----5------5-------------|
G|----------------------------------------------------|
C|----------------------------------------------------|

c|-----------5---------------------4h5-----4~~--------|
G|-----4-----------4-----------4----------------------|
F|----------------------------------------------------|
C|--2-----2-----2-----4-----5----5------5-------------|
G|----------------------------------------------------|
C|----------------------------------------------------|

Chorus (Listen to song for strum pattern):

c|--------0----0---0----0------|
G|--------0----0---0----0------|
F|--7--7--7--7-7-7-7-7--7--7---|
C|--7--7--7--7-7-7-7-7--7--7---|
G|--5--5--5--5-5-5-5-5--5--5---|
C|--0--0--0--0-0-0-0-0--0--0---|

c|--------0----0---0----0------|
G|--------0----0---0----0------|
F|--6--6--6--6-6-6-6-6--6--6---|
C|--7--7--7--7-7-7-7-7--7--7---|
G|--4--4--4--4-4-4-4-4--4--4---|
C|-----------------------------|

c|--------0----0---0----0------|
G|--------0----0---0----0------|
F|--4--4--4--4-4-4-4-4--4--4---|
C|--4--4--4--4-4-4-4-4--4--4---|
G|--2--2--2--2-2-2-2-2--2--2---|
C|-----------------------------|

c|-----------------------------|
G|-----------------------------|
F|--------7----7---7----7------|
C|--5--5--5--5-5-5-5-5--5--5---|
G|--5--5--5--5-5-5-5-5--5--5---|
C|--5--5--5--5-5-5-5-5--5--5---|

(Repeat four times)

Pause: (Do Intro tabs one time)

Verse 2: (Same as Verse 1)

(Chorus)

Bridge:

c|-------------------------------------------|
G|-------------------------------------------|
F|---------------------------------7---7~~---|
C|--7---7~~--9---9~~----5---5~~----7---7~~---|
G|--7---7~~--9---9~~----5---5~~----4---4~~---|
C|--7---7~~--9---9~~----5---5~~----0---0~~---|

Michael switches to an electric guitar (with distortion)

d|-------------------------------------------|
A|-------------------------------------------|
F|-------------------------------------------|
C|-------------------------------------------|
G|-------------------------------------------|
D|----------------------------------------3/-|

d|--------------------------|
A|--------------------------|
F|--------------------------|
C|-------------7--7--7--7---|
G|-7--7--7--7--7--7--7--7---|
D|-5--5--5--5--5--5--5--5---|
  P.M.-------|

d|--------------------------|
A|--------------------------|
F|--------------------------|
C|-------------9--9--9--9---|
G|-9--9--9--9--9--9--9--9---|
D|-7--7--7--7--7--7--7--7---|
  P.M.-------|

d|--------------------------|
A|--------------------------|
F|--------------------------|
C|-------------5--5--5--5---|
G|-5--5--5--5--5--5--5--5---|
D|-3--3--3--3--3--3--3--3---|
  P.M.-------|

d|--------------------------|
A|--------------------------|
F|--------------------------|
C|-5--5--5--5--5--5--5--5---|
G|-5--5--5--5--5--5--5--5---|
D|-3--3--3--3--3--3--3--3---|



Suggest correction
Creating personal tab
Creating personal tab
You can edit any tab online and save it as your Personal.

You can edit, replace or remove any tab part or add personal notes – all changes will be seen only by you.

Personal tabs can be accessed anytime from any device, even offline.
Learn more »
Give kudos to tab author, rate the tab!
1 2 3 4 5
comments
print report bad tab
guest
Wanna post a correction for this tab? Suggest correction