Oops, an error
Loading. Please wait.

Amnesia Tab

version 4
version 4

Interactive

Video

16,982 views 24 this week
2 commentsread comments
1 2 3 4 5
excellent!
x 31
add to favorites
launch autoscroll
font size
0
reset
how to read this tab
guitar tuner
Tab Pro tools
  • play this tab
  • loop segment
  • change instrument
  • show fretboard
  • metronome
×
Best way to learn
"Amnesia"
Autoscroll
slow
fast
+/-
esc
set tempo
stop
Contributor
Difficulty
novice
This is to play with the studio version :)

Standard Tuning
No Capo

Intro:

e|-----------2-----------3-----------2h3-----------------|
B|-----3-----------3-----------3-------------3-----3-----|
G|--2-----2-----2-----2-----0-----0-------0-----0--------|  (x2)
d|-------------------------------------------------------|
A|-------------------------------------------------------|
E|-------------------------------------------------------|

Verse 1:

I drove by all the places we used to hang out getting wasted
e|-----------2-----------3-----------2h3-----------------|
B|-----3-----------3-----------3-------------3-----3-----|
G|--2-----2-----2-----2-----0-----0-------0-----0--------|  
d|-------------------------------------------------------|
A|-------------------------------------------------------|
E|-------------------------------------------------------|

I thought about our last kiss, how it felt the way you tasted
e|-----------2-----------3-----------2h3-----------------|
B|-----3-----------3-----------3-------------3-----3-----|
G|--2-----2-----2-----2-----0-----0-------0-----0--------|  
d|-------------------------------------------------------|
A|-------------------------------------------------------|
E|-------------------------------------------------------|

And even though your friends tell me you're doing fine
e|-----------2-----------2-----------------2-------------|
B|-----3-----------3-----------3-----3-------------------|
G|--------------------------0-----0-----0----------------|
d|--2-----2-----2-----4----------------------------------|
A|-------------------------------------------------------|
E|-------------------------------------------------------|

Are you somewhere feeling lonely even though he's right beside you?
e|-----------2-----------3-----------2h3-----------------|
B|-----3-----------3-----------3-------------3-----3-----|
G|--2-----2-----2-----2-----0-----0-------0-----0--------|  
d|-------------------------------------------------------|
A|-------------------------------------------------------|
E|-------------------------------------------------------|

When he says those words that hurt you, do you read the ones I wrote you?
e|-----------2-----------3-----------2h3-----------------|
B|-----3-----------3-----------3-------------3-----3-----|
G|--2-----2-----2-----2-----0-----0-------0-----0--------|  
d|-------------------------------------------------------|
A|-------------------------------------------------------|
E|-------------------------------------------------------|

Sometimes I start to wonder, was it just a lie?
e|-----------2-----------2-----------------2-------------|
B|-----3-----------3-----------3-----3-------------------|
G|--------------------------0-----0-----0----------------|
d|--2-----2-----2-----4----------------------------------|
A|-------------------------------------------------------|
E|-------------------------------------------------------|

If what we had was real, how could you be fine?
e|-----------2-----------2-----------------2-------------|
B|-----3-----------3-----------3-----3-------------------|
G|--------------------------0-----0-----0----------------|
d|--2-----2-----2-----4----------------------------------|
A|-------------------------------------------------------|
E|-------------------------------------------------------|

D
Cause I'm not fine at all

D                                       A
I remember the day you told me you were leaving
Bm                                      G
I remember the make-up running down your face
D                                  A
And the dreams you left behind you didn't need them
Bm                             G
Like every single wish we ever made
D                               A
I wish that I could wake up with amnesia
Bm                                 G
And forget about the stupid little things
D                                   A
Like the way it felt to fall asleep next to you
Bm                           G
And the memories I never can escape

Cause I'm not fine at all

Fill:
e|-----------2-----------3-----------2h3-----------------|
B|-----3-----------3-----------3-------------3-----3-----|
G|--2-----2-----2-----2-----0-----0-------0-----0--------|  
d|-------------------------------------------------------|
A|-------------------------------------------------------|
E|-------------------------------------------------------|

Verse 2:

The pictures that you sent me they're still living in my phone
e|-----------2-----------3-----------2h3-----------------|
B|-----3-----------3-----------3-------------3-----3-----|
G|--2-----2-----2-----2-----0-----0-------0-----0--------|  
d|-------------------------------------------------------|
A|-------------------------------------------------------|
E|-------------------------------------------------------|

I admit I like to see them, I admit I feel alone
e|-----------2-----------3-----------2h3-----------------|
B|-----3-----------3-----------3-------------3-----3-----|
G|--2-----2-----2-----2-----0-----0-------0-----0--------|  
d|-------------------------------------------------------|
A|-------------------------------------------------------|
E|-------------------------------------------------------|

And all my friends keep asking why I'm not around
e|-----------2-----------2-----------------2-------------|
B|-----3-----------3-----------3-----3-------------------|
G|--------------------------0-----0-----0----------------|
d|--2-----2-----2-----4----------------------------------|
A|-------------------------------------------------------|
E|-------------------------------------------------------|

It hurts to know you're happy, yeah, it hurts that you?ve moved on
e|-----------2-----------3-----------2h3-----------------|
B|-----3-----------3-----------3-------------3-----3-----|
G|--2-----2-----2-----2-----0-----0-------0-----0--------|  
d|-------------------------------------------------------|
A|-------------------------------------------------------|
E|-------------------------------------------------------|

It's hard to hear your name when I haven't seen you in so long
e|-----------2-----------3-----------2h3-----------------|
B|-----3-----------3-----------3-------------3-----3-----|
G|--2-----2-----2-----2-----0-----0-------0-----0--------|  
d|-------------------------------------------------------|
A|-------------------------------------------------------|
E|-------------------------------------------------------|

It's like we never happened, was it just a lie?
e|-----------2-----------2-----------------2-------------|
B|-----3-----------3-----------3-----3-------------------|
G|--------------------------0-----0-----0----------------|
d|--2-----2-----2-----4----------------------------------|
A|-------------------------------------------------------|
E|-------------------------------------------------------|

If what we had was real, how could you be fine?
e|-----------2-----------2-----------------2-------------|
B|-----3-----------3-----------3-----3-------------------|
G|--------------------------0-----0-----0----------------|
d|--2-----2-----2-----4----------------------------------|
A|-------------------------------------------------------|
E|-------------------------------------------------------|

D
?Cause I?m not fine at all

D                                       A
I remember the day you told me you were leaving
Bm                                      G
I remember the make-up running down your face
D                                  A
And the dreams you left behind you didn't need them
Bm                             G
Like every single wish we ever made
D                               A
I wish that I could wake up with amnesia
Bm                                 G
And forget about the stupid little things
D                                   A
Like the way it felt to fall asleep next to you
Bm                           G
And the memories I never can escape

Cause I'm not fine at all

Bridge:

If today I woke up with you right beside me
e|---------------|
B|--2--2---3--3--|
G|--2--2---4--4--|
d|--2--2---4--4--|
A|---------------|
E|---------------|

Like all of this was just some twisted dream
e|---------------|
B|--3--3---3--3--|
G|--0--0---2--2--|
d|--0--0---0--0--|
A|---------------|
E|---------------|

I'd hold you closer than I ever did before
e|---------------|
B|--2--2---3--3--|
G|--2--2---4--4--|
d|--2--2---4--4--|
A|---------------|
E|---------------|

And you'd never slip away, and you'd never hear me say
e|---------------|
B|--3--3---3--3--|
G|--0--0---2--2--|   (begin strumming D)
d|--0--0---0--0--| 
A|---------------|
E|---------------|

D                                       A
I remember the day you told me you were leaving
Bm                                      G
I remember the make-up running down your face
D                                  A
And the dreams you left behind you didn?t need them
Bm                             G
Like every single wish we ever made
D                               A
I wish that I could wake up with amnesia
Bm                                 G
And forget about the stupid little things
D                                   A
Like the way it felt to fall asleep next to you
Bm                           G
And the memories I never can escape

Cause I'm not fine at all

e|-----------2-----------3-----------2h3----------------|
B|-----3-----------3-----------3-------------3-----3----|   (x3)
G|--2-----2-----2-----2-----0-----0-------0-----0-------|  
d|------------------------------------------------------|
A|------------------------------------------------------|
E|------------------------------------------------------|

End with D
comments
print report bad tab
2 comments total.
+2 reply
Isacharabel wrote on October 11 2014, 08:33 pm

Thanks for putting this up. I actually think his is the most accurate tab :)

+1 reply
funkymonkeyme wrote on December 30 2014, 06:42 pm, edited at 06:43 pm

I agree this is the most accurate tab. But I think instead of the A chord in the chorus it should be a D/C# which is x40323

I want to post or [tab]
guest
You may want to rate the tab now too:
select rating
Please do not post tabs as comments. Select "correction" instead!