Oops, an error
Loading. Please wait.

Amnesia Tab

version 6
version 6
3,117 views 21 this week
no commentswrite comment
1 2 3 4 5
accurate
x 7
add to favorites
launch autoscroll
font size
0
reset
how to read this tab
guitar tuner
Tab Pro tools
  • play this tab
  • loop segment
  • change instrument
  • show fretboard
  • metronome
×
Best way to learn
"Amnesia"
Autoscroll
slow
fast
+/-
esc
set tempo
stop
Contributor
Difficulty
Tuning
advanced
C G C F A D
Amnesia – 5 Seconds of Summer

Alternate Tuning (based on Michael's guitar part in live performances)

Pattern A

c|-------4-------4-|------4h5----------|
G|---5-------5-----|--5---------5---5--|
F|-2---2---2---2---|0---0-----0---0----|
C|-----------------|-------------------|
G|-----------------|-------------------|
C|-----------------|-------------------| 

Pattern B
c|-------4---------|------4----------|
G|---5-------5---5-|--5--------------|
F|-----------------|0---0------------|
C|-2---2---2---4---|-----------------|
G|-----------------|-----------------|
C|-----------------|-----------------|   

Intro: Pattern A x4
Verse: Pattern A x 2
       Pattern B x 1
       Pattern A x 2
       Pattern B x 2

Chords in Chorus (4 counts each)


c|-0-|-0-|-0-|-0-|
G|-0-|-0-|-0-|-0-|
F|-7-|-6-|-4-|-7-|
C|-7-|-7-|-4-|-7-|  x4
G|-5-|-4-|-2-|-5-|
C|---|---|---|-5-| 

Bridge (4 counts each)

c|-0-|-0-|-0-|-0-|-0-|-0-|-0-|-0-|
G|-0-|-0-|-0-|-0-|-0-|-0-|-0-|-0-|
F|-x-|-x-|-7-|-7-|-x-|-x-|-7-|-7-|
C|-7-|-9-|-5-|-4-|-7-|-9-|-7-|-7-| 
G|-7-|-9-|-5-|-5-|-7-|-9-|-5-|-5-|
C|-7-|-9-|-5-|-4-|-7-|-9-|-5-|-5-| 

____________________________
for Kathleen at BCR Randwick
comments
print report bad tab
I want to post or [tab]
guest
You may want to rate the tab now too:
select rating
Please do not post tabs as comments. Select "correction" instead!