Oops, an error
Loading. Please wait.

Amnesia Tab

version 6
version 6

Whole song

Interactive

Video

2,468 views 6 this week
2 commentsread comments
1 2 3 4 5
2 more votes to show rating
add to favorites
launch autoscroll
font size
0
reset
how to read this tab
guitar tuner
×
Best way to learn
"Amnesia"
Autoscroll
slow
fast
+/-
esc
set tempo
stop
Author
-------------------------------------------------------------------------------
                             Amnesia - 5 Seconds of Summer
-------------------------------------------------------------------------------
Tabbed by:Qkarlos
Version:Hard
Tuning:Standard

Verse
e|---------------------------------------|
B|----------7-------7-------7h8----------|
G|------7-------7-------7---------7---7--| (x4)
D|----7---7---7---7---5---5-----5---5----|
A|---------------------------------------|
E|---------------------------------------|

e|---------------------------------------|
B|----------7-8-7------------7-------7---|
G|--------7-------7------7-------7-------|
D|------7-----------7------5---5---5-----|
A|---------------------0-----------------|
E|----0----------------------------------|

e|---------------------------------------|
B|----------7-------7-------7h8----------|
G|------7-------7-------7---------7---7--| (x2)
D|----7---7---7---7---5---5-----5---5----|
A|---------------------------------------|
E|---------------------------------------|

Pre-chorus
e|----------------------------------------------------------------------------------------|
B|----------7-8-7------------7-------7----------7-8-7------------7------------------------|
G|--------7-------7------7-------7------------7-------7------7-------7---7---7---7---7----|
D|------7-----------7------5---5---5--------7-----------7------5---5---5---5---5---5------|
A|---------------------0-----------------------------------0------------------------------|
E|----0-----------------------------------0-----------------------------------------------|

chorus: D - A - Bm - G (x2)

Verse
e|---------------------------------------|
B|----------7-------7-------7h8----------|
G|------7-------7-------7---------7---7--| (x4)
D|----7---7---7---7---5---5-----5---5----|
A|---------------------------------------|
E|---------------------------------------|

e|---------------------------------------|
B|----------7-8-7------------7-------7---|
G|--------7-------7------7-------7-------|
D|------7-----------7------5---5---5-----|
A|---------------------0-----------------|
E|----0----------------------------------|

e|---------------------------------------|
B|----------7-------7-------7h8----------|
G|------7-------7-------7---------7---7--| (x2)
D|----7---7---7---7---5---5-----5---5----|
A|---------------------------------------|
E|---------------------------------------|

Pre-chorus
e|----------------------------------------------------------------------------------------|
B|----------7-8-7------------7-------7----------7-8-7------------7------------------------|
G|--------7-------7------7-------7------------7-------7------7-------7---7---7---7---7----|
D|------7-----------7------5---5---5--------7-----------7------5---5---5---5---5---5------|
A|---------------------0-----------------------------------0------------------------------|
E|----0-----------------------------------0-----------------------------------------------|

chorus: D - A - Bm - G 

Bridge: A - Bm - G - D - A - Bm - G

chorus: D - A - Bm - G 

Ending Verse

e|---------------------------------------|
B|----------7-------7-------7h8----------|
G|------7-------7-------7---------7---7--| (x4)
D|----7---7---7---7---5---5-----5---5----|
A|---------------------------------------|
E|---------------------------------------|

************************************

| /   slide up
| \   slide down
| h   hammer-on
| p   pull-off
| ~   vibrato
| +   harmonic
| x   Mute note
| b   Bend
| pb  Pre-bend
| br  Bend release
| pbr Pre-bend release
| brb Bend release bend

************************************
Suggest correction
Give kudos to tab author, rate the tab!
1 2 3 4 5
comments
print report bad tab
2 comments total.
0 reply
alexangus664 31 Aug 07, 2016 10:06 PM

didn't like this contribution

0 reply
alexangus664 31 Aug 07, 2016 10:06 PM

didn't like this contribution

guest
You may want to rate the tab now too:
select rating
Wanna post a correction for this tab? Suggest correction