Oops, an error
Loading. Please wait.
We have Chord Pro version of Broken Home.
It's the closest thing you can get to the original song and it has interactive parts. Check out the tab »
×
637 views 3 this week
no commentswrite comment
1 2 3 4 5
x 3
add to favorites
×
Save as Personal and add changes to this tab that will be seen only by you. Learn more ›
×
You can save this tab as Personal to edit and correct it or add notes. All changes will be seen only by you. Learn more »
launch autoscroll
font size
0
reset
how to read this tab
guitar tuner
edit
Autoscroll
slow
fast
+/-
esc
set tempo
stop
-------------------------------------------------------------------------------
                             Broken Home - 5 Seconds Of Summer
-------------------------------------------------------------------------------
Tabbed by: Meg Hughes

Tuning: Standard
Capo on 1st

* means strum once

Intro:
e|---------------------------------
B|---------------------------------
G|---------------------------------
D|---2-----2-----2---2-----2-----2-
A|-----3-----3---------3-----3-----
E|-5-----5-----5---5-----5-----5---

Verse 1:

They would yell, they would scream, they were fighting it out. 
e|---------------------------------
B|---------------------------------
G|---------------------------------
D|---2-----2-----2---2-----2-------
A|-----3-----3---------3-----3-----
E|-5-----5-----5---5-----5-----5---

She would hope, she would pray, she was waiting it out.
e|---------------------------------
B|---------------------------------
G|---------------------------------
D|---------------------------------
A|---3-3---3-3---3---3-3---3-3-----
E|-1-----1-----1---1-----1-----1---

Holding on to a dream, while she watches these
e|---------------------------------
B|---------------------------------
G|---------------------------------
D|---0-----0-----0---0-----0-------
A|-----3-----3---------3-----3-----
E|-3-----3-----3---3-----3-----3---

walls fall down.
e|---------------------------------
B|---------------------------------
G|---------------------------------
D|---------------------------------
A|---3-3---3-3---3---3-3---3-3-----
E|-1-----1-----1---1-----1-----1---

Sharp words, like knives, they were cutting her down. 
e|---------------------------------
B|---------------------------------
G|---------------------------------
D|---2-----2-----2---2-----2-------
A|-----3-----3---------3-----3-----
E|-5-----5-----5---5-----5-----5---

Shattered glass, like the past, it's a memory now.
e|---------------------------------
B|---------------------------------
G|---------------------------------
D|---------------------------------
A|---3-3---3-3---3---3-3---3-3-----
E|-1-----1-----1---1-----1-----1---

Holding on to a dream, while she watches these
e|---------------------------------
B|---------------------------------
G|---------------------------------
D|---0-----0-----0---0-----0------
A|-----3-----3---------3-----3-----
E|-3-----3-----3---3-----3-----3---

walls fall down.
e|---------------------------------
B|---------------------------------
G|---------------------------------
D|---------------------------------
A|---3-3---3-3---3---3-3---3-3-----
E|-1-----1-----1---1-----1-----1---

Chorus:

Hey mom, hey dad. When did this end?
e|-----------------------------------
B|-----------------------------------
G|-0-------0-------0-------0---------
D|---2---2---2---2---2---2---2---2---
A|-----3-------3-------3-------3-----
E|-----------------------------------

Where did you lose your happiness?
e|-----------------------------------
B|-----------------------------------
G|-0-------0-------0-------0---------
D|---0---0---0---0---0---0---0---0---
A|-----2-------2-------2-------2-----
E|-----------------------------------

I'm here alone inside of this
e|-----------------------------------
B|-----------------------------------
G|-2-------2-------2-------2---------
D|---2---2---2---2---2---2---2---2---
A|-----0-------0-------0-------0-----
E|-----------------------------------

broken home.
e|-----------------------------------
B|-----------------------------------
G|-2-------2-------2-------2---------
D|---3---3---3---3---3---3---3---3---
A|-----3-------3-------3-------3-----
E|-----------------------------------

Who's right, who's wrong? Who really cares.
e|-----------------------------------
B|-----------------------------------
G|-0-------0-------0-------0---------
D|---2---2---2---2---2---2---2---2---
A|-----3-------3-------3-------3-----
E|-----------------------------------

The fault, the blame, the pain's still there.
e|-----------------------------------
B|-----------------------------------
G|-0-------0-------0-------0---------
D|---0---0---0---0---0---0---0---0---
A|-----2-------2-------2-------2-----
E|-----------------------------------

I'm here alone inside of this
e|-----------------------------------
B|-----------------------------------
G|-2-------2-------2-------2---------
D|---2---2---2---2---2---2---2---2---
A|-----0-------0-------0-------0-----
E|-----------------------------------

broken home. This broken home.
e|----------------------------------------------------------
B|----------------------------------------------------------
G|-2-------2-------2-------2-------2-------2----------------
D|---3---3---3---3---3---3---3---3---3---3-----2-----2----2-
A|-----3-------3-------3-------3-------3---------3-----3----
E|-------------------------------------------5-----5-----5--

Verse 2:

Wrote it down on the walls, she was screaming it out. 
e|---------------------------------
B|---------------------------------
G|---------------------------------
D|---2-----2-----2---2-----2-------
A|-----3-----3---------3-----3-----
E|-5-----5-----5---5-----5-----5---

Made it clear, she's still here, are you listening now?
e|---------------------------------
B|---------------------------------
G|---------------------------------
D|---------------------------------
A|---3-3---3-3---3---3-3---3-3-----
E|-1-----1-----1---1-----1-----1---

Just a ghost in the halls, feeling empty,
e|---------------------------------
B|---------------------------------
G|---------------------------------
D|---0-----0-----0---0-----0-------
A|-----3-----3---------3-----3-----
E|-3-----3-----3---3-----3-----3---

They're vacant now.
e|---------------------------------
B|---------------------------------
G|---------------------------------
D|---------------------------------
A|---3-3---3-3---3---3-3---3-3-----
E|-1-----1-----1---1-----1-----1---

All the battles, all the wars, all the times that you fought. 
e|---------------------------------
B|---------------------------------
G|---------------------------------
D|---2-----2-----2---2-----2-------
A|-----3-----3---------3-----3-----
E|-5-----5-----5---5-----5-----5---

She's the scars, she's the bruises, she's the pain that you brought.
e|---------------------------------
B|---------------------------------
G|---------------------------------
D|---------------------------------
A|---3-3---3-3---3---3-3---3-3-----
E|-1-----1-----1---1-----1-----1---

There was life, there was love, like a light and it's
e|---------------------------------
B|---------------------------------
G|---------------------------------
D|---0-----0-----0---0-----0-------
A|-----3-----3---------3-----3-----
E|-3-----3-----3---3-----3-----3---

fading out.
e|---------------------------------
B|---------------------------------
G|---------------------------------
D|---------------------------------
A|---3-3---3-3---3---3-3---3-3-----
E|-1-----1-----1---1-----1-----1---

Chorus:
Hey mom, hey dad. When did this end?
e|-----------------------------------
B|-----------------------------------
G|-0-------0-------0-------0---------
D|---2---2---2---2---2---2---2---2---
A|-----3-------3-------3-------3-----
E|-----------------------------------

Where did you lose your happiness?
e|-----------------------------------
B|-----------------------------------
G|-0-------0-------0-------0---------
D|---0---0---0---0---0---0---0---0---
A|-----2-------2-------2-------2-----
E|-----------------------------------

I'm here alone inside of this
e|-----------------------------------
B|-----------------------------------
G|-2-------2-------2-------2---------
D|---2---2---2---2---2---2---2---2---
A|-----0-------0-------0-------0-----
E|-----------------------------------

broken home.
e|-----------------------------------
B|-----------------------------------
G|-2-------2-------2-------2---------
D|---3---3---3---3---3---3---3---3---
A|-----3-------3-------3-------3-----
E|-----------------------------------

Who's right, who's wrong? Who really cares.
e|-----------------------------------
B|-----------------------------------
G|-0-------0-------0-------0---------
D|---2---2---2---2---2---2---2---2---
A|-----3-------3-------3-------3-----
E|-----------------------------------

The fault, the blame, the pain's still there.
e|-----------------------------------
B|-----------------------------------
G|-0-------0-------0-------0---------
D|---0---0---0---0---0---0---0---0---
A|-----2-------2-------2-------2-----
E|-----------------------------------

I'm here alone inside of this
e|-----------------------------------
B|-----------------------------------
G|-2-------2-------2-------2---------
D|---2---2---2---2---2---2---2---2---
A|-----0-------0-------0-------0-----
E|-----------------------------------

broken home. This broken home.(Start strumming on last home)
e|-----------------------------------
B|-----------------------------------
G|-2-------2-------2-------2-------2-
D|---3---3---3---3---3---3---3---3---
A|-----3-------3-------3-------3-----
E|-----------------------------------

Bridge:

Am                     F                          C
  You've got to let it go, you're losing all your hope

                G                       Am
Nothing left to hold, locked out in the cold

                  F                            C
You painted memories then washed out all the scenes

                 G                             C*
I'm stuck in between a nightmare and lost dreams

Chorus:

                                G*
Hey mum, hey dad. When did this end?

                                  Am*
Where did you lose your happiness?

                              F
I'm here alone inside of this broken home

C                                G
Hey mum, hey dad. When did this end?

                                Am
Where did you lose your happiness?

                              F
I'm here alone inside of this broken home

C                                    G
Who's right, who's wrong. Who really cares?

                                          Am
The fault, the blame, the pain's still there

                              F
I'm here alone inside of this broken home. This broken

home
e|---------------------------------
B|---------------------------------
G|---------------------------------
D|---2-----2-----2---2-----2-----2-    Am
A|-----3-----3---------3-----3-----
E|-5-----5-----5---5-----5-----5---


            
            
Suggest correction
Creating personal tab
Creating personal tab
You can edit any tab online and save it as your Personal.

You can edit, replace or remove any tab part or add personal notes – all changes will be seen only by you.

Personal tabs can be accessed anytime from any device, even offline.
Learn more »
Give kudos to tab author, rate the tab!
1 2 3 4 5
comments
print report bad tab
guest
You may want to rate the tab now too:
select rating
Wanna post a correction for this tab? Suggest correction