Oops, an error
Loading. Please wait.

Broken Pieces tab

version 1
version 1

Whole song

2,814 views 12 this week
1 commentread comment
1 2 3 4 5
x 9
add to favorites
×
Save as Personal and add changes to this tab that will be seen only by you. Learn more ›
×
You can save this tab as Personal to edit and correct it or add notes. All changes will be seen only by you. Learn more »
launch autoscroll
font size
0
reset
how to read this tab
guitar tuner
edit
Autoscroll
slow
fast
+/-
esc
set tempo
stop
Author
-------------------------------------------------------------------------------
                             Broken Pieces - 5 Seconds Of Summer
-------------------------------------------------------------------------------
Such an amazing song I hope u like it, tell me if there's anything u think isnt right and I'll change it
I hope this helps some ppl :)
Also dont be put off by how long this tab is cuz I PROMISE u it's super simple once u get the hang of it
It's just a long tab, but not complicated AT ALL, it's the same notes repeated but in different orders
and stuff :)

Tabbed by: Grace / @5SOS_pizzza
Twitter: @5SOS_pizzza
Tuning: Standard :)


Intro 

Guitar 1
e|--------------------------------------------------------------------------|
B|--------------------------------------------------------------------------|
G|--------------------------------------------------------------------------|
D|-1-1-1-1-1-1-1-1-3-3-3-3-3-3-3-3---------------------------------8-8-8-8-8|
A|---------------------------------3-3-3-3-3-3-3-3-----------------6-6-6-6-6|
E|-------------------------------------------------4-4-4-4-4-4-4-4----------|

e|---------------------------------------------------------------------------|
B|---------------------------------------------------------------------------|
G|---------------------------------------------------------------------------|
D|-8-8-8-10-10-10-10-10-10-10-10-5-5-5-5-5-5-5-5-----------------------------|
A|-6-6-6-8--8--8--8--8--8--8--8--3-3-3-3-3-3-3-3-6-6-6-6-6-6-6-6-------------|
E|-----------------------------------------------4-4-4-4-4-4-4-4-------------|

Guitar 2
e|----------3---------------4--------------------------------------|
B|-----4---------4-----6---------6-----1----4----1----------1------|
G|-----------------------------------------------------1---------1-|
D|-----------------------------------------------------------------| x2
A|-----------------------------------------------------------------|
E|-----------------------------------------------------------------|

Verse

Guitar 1 (Palm mute this)
    I woke up in the place we started...
e|------------------------------------------------------------------------|
B|------------------------------------------------------------------------|
G|------------------------------------------------------------------------|
D|-8-8-8-8-8-8-8-8-10-10-10-10-10-10-10-10-5-5-5-5-5-5-5-5----------------|
A|-6-6-6-6-6-6-6-6-8--8--8--8--8--8--8--8--3-3-3-3-3-3-3-3-6-6-6-6-6-6-6-6|
E|---------------------------------------------------------4-4-4-4-4-4-4-4|

e|-----------------------------------------------------------------------|
B|-----------------------------------------------------------------------|
G|-----------------------------------------------------------------------|
D|-8-8-8-8-8-8-8-8-10-10-10-10-10-10-10-10-----------------------8-8-8-8-|
A|-6-6-6-6-6-6-6-6-8--8--8--8--8--8--8--8--6-6-6-6-6-6-6-6-6-6-6-6-6-6-6-|
E|-----------------------------------------4-4-4-4-4-4-4-4-4-4-4---------|
      
       Can't shake this sickening feeling...
e|------------------------------------------------------------------------|
B|------------------------------------------------------------------------|
G|------------------------------------------------------------------------|
D|-8-8-8-8-8-8-8-8-10-10-10-10-10-10-10-10-5-5-5-5-5-5-5-5----------------|
A|-6-6-6-6-6-6-6-6-8--8--8--8--8--8--8--8--3-3-3-3-3-3-3-3-6-6-6-6-6-6-6-6|
E|---------------------------------------------------------4-4-4-4-4-4-4-4|

e|------------------------------------------------------------------------|
B|------------------------------------------------------------------------|
G|------------------------------------------------------------------------|
D|-8-8-8-8-8-8-8-8-10-10-10-10-10-10-10-10--------------------------------|
A|-6-6-6-6-6-6-6-6-8--8--8--8--8--8--8--8--6-6-6-6-6-6-6-6-6-6-6-6-6-6-6-6|
E|-----------------------------------------4-4-4-4-4-4-4-4-4-4-4-4-4-4-4-4|

Guitar 2
       Can't shake this sickening feeling...
e|----------3---------------4-----------------------||--(play 1st time only)-||
B|-----4---------4-----6---------6-----1----4----1--||--------1--------------||
G|--------------------------------------------------||---1---------1---------||
D|--------------------------------------------------||-----------------------|| x2
A|--------------------------------------------------||-----------------------||
E|--------------------------------------------------||-----------------------||

Pre chorus

Guitar 1 (PALM MUTE and come in on 'w' of way)
I'm looking for a way to change my mind...
e|----------------------------------------------------------------------------|
B|----------------------------------------------------------------------------|
G|----------------------------------------------------------------------------|
D|----------------8-8-8-8-8-8-8-8-10-10-10-10-10-10-10-10-5-5-5-5-5-5-5-5-5-5-|
A|----------------6-6-6-6-6-6-6-6--8--8--8--8--8--8--8--8-3-3-3-3-3-3-3-3-3-3-|
E|----------------------------------------------------------------------------|

Chorus

Guitar 1 (strumming pattern is D  DU DU)
   Oh, tell me...
e|-----------------------------------------------------------------------------------|
B|-----------------------------------------------------------------------------------|
G|-----------------------------------------------------------------------------------|  
D|-8-----------8-8---8-8---------10----------10-10---10-10-------5----------5-5---5-5|  
A|-6-----------6-6---6-6---------8-----------8--8----8--8--------3----------3-3---3-3|  
E|-----------------------------------------------------------------------------------|  
                                       
e|---------------------------------------------------------------------------|
B|---------------------------------------------------------------------------|
G|---------------------------------------------------------------------------|
D|---------------------------------------------------------------------------| x2
A|--------6-----------6-6---6-6----------------------------------------------| 
E|--------4-----------4-4---4-4----------------------------------------------|

Pre-Verse

Guitar 1
e|-----------------------------------------------------------------|
B|-----------------------------------------------------------------|
G|-----------------------------------------------------------------|
D|-1-1-1-1-1-1-1-1-3-3-3-3-3-3-3-3---------------------------------|
A|---------------------------------3-3-3-3-3-3-3-3-----------------|
E|-------------------------------------------------4-4-4-4-4-4-4-4-|

Guitar 2
e|----------3---------------4--------------------------------------|
B|-----4---------4-----6---------6-----1----4----1----------1------|
G|-----------------------------------------------------1---------1-|
D|-----------------------------------------------------------------|
A|-----------------------------------------------------------------|
E|-----------------------------------------------------------------|

Verse 

Guitar 1 (it's actually played on piano on the record but I've worked it out for guitar)
e|---------------------------------------------------------------|
B|---------------------------------------------------------------|
G|---------------------------------------------------------------|
D|-1---------1-----3---------------------------------------------|
A|-------------------------------3---------3---------------------|
E|-----------------------------------------------4---------------|

e|--------------------------------------------------------------|
B|--------------------------------------------------------------|
G|------------------------------------------------5---3---------|
D|-1---------1-----3--------------------------------------6---5-|
A|-------------------------------3------------------------------|
E|--------------------------------------------------------------|

   Running in circles and...
e|------------------------------------------------------------------------|
B|------------------------------------------------------------------------|
G|------------------------------------------------------------------------|
D|-8-8-8-8-8-8-8-8-10-10-10-10-10-10-10-10-5-5-5-5-5-5-5-5----------------|
A|-6-6-6-6-6-6-6-6-8--8--8--8--8--8--8--8--3-3-3-3-3-3-3-3-6-6-6-6-6-6-6-6|
E|---------------------------------------------------------4-4-4-4-4-4-4-4|

e|------------------------------------------------------------------------|
B|------------------------------------------------------------------------|
G|------------------------------------------------------------------------|
D|-8-8-8-8-8-8-8-8-10-10-10-10-10-10-10-10-5-5-5-5-5-5-5-5-5-5-5-5-5-5-5-5|
A|-6-6-6-6-6-6-6-6-8--8--8--8--8--8--8--8--3-3-3-3-3-3-3-3-3-3-3-3-3-3-3-3|
E|------------------------------------------------------------------------|

Pre chorus

Guitar 1 (PALM MUTE and come in on 'w' of way)
I'm looking for a way to change my mind...
e|----------------------------------------------------------------------------|
B|----------------------------------------------------------------------------|
G|----------------------------------------------------------------------------|
D|----------------8-8-8-8-8-8-8-8-10-10-10-10-10-10-10-10-5-5-5-5-5-5-5-5-5-5-|
A|----------------6-6-6-6-6-6-6-6--8--8--8--8--8--8--8--8-3-3-3-3-3-3-3-3-3-3-|
E|----------------------------------------------------------------------------|

Chorus

Guitar 1 (strumming pattern is D  DU DU)
   Oh, tell me...
e|-----------------------------------------------------------------------------------|
B|-----------------------------------------------------------------------------------|
G|-----------------------------------------------------------------------------------|  
D|-8-----------8-8---8-8---------10----------10-10---10-10-------5----------5-5---5-5|  
A|-6-----------6-6---6-6---------8-----------8--8----8--8--------3----------3-3---3-3|  
E|-----------------------------------------------------------------------------------|  
                                       
e|---------------------------------------------------------------------------|
B|---------------------------------------------------------------------------|
G|---------------------------------------------------------------------------|
D|---------------------------------------------------------------------------| x3
A|--------6-----------6-6---6-6----------------------------------------------| 
E|--------4-----------4-4---4-4----------------------------------------------|

Bridge

Guitar 1
        We're fading out...
e|---------------------------------------------------------------------------|
B|---------------------------------------------------------------------------|
G|---------------------------------------------------------------------------|
D|-8-8-6---------8-10-10-10----------5-5-5---------5-------------------------| x2
A|-6-6-6---------6-8--8--8-----------3-3-3---------3-6-6-6-------------------| 
E|---------------------------------------------------4-4-4-------------------|

Pre chorus

Guitar 1 (PALM MUTE and come in on 'w' of way)
You're looking for a way to change your mind...
e|-------------------------------------------------------------------------------|
B|-------------------------------------------------------------------------------|
G|-------------------------------------------------------------------------------|
D|-------------------8-8-8-8-8-8-8-8-10-10-10-10-10-10-10-10-5-5-5-5-5-5-5-5-5-5-|
A|-------------------6-6-6-6-6-6-6-6--8--8--8--8--8--8--8--8-3-3-3-3-3-3-3-3-3-3-|
E|-------------------------------------------------------------------------------|

Bridge pt2 (i.e. Ashtons solo :)

Guitar 2
   Oh, tell me...
e|---------------------------------------------------------------------------|
B|-8-8-8-8-8-8-8-8-6-6-6-6-6-6-6-6-4-4-4-4-4-4-4-4-1-1-1-1-1-1-1-1-----------|
G|---------------------------------------------------------------------------|
D|---------------------------------------------------------------------------| 
A|---------------------------------------------------------------------------| 
E|---------------------------------------------------------------------------|

Chorus

Guitar 1 (strumming pattern is D  DU DU)
   Oh, tell me...
e|-----------------------------------------------------------------------------------|
B|-----------------------------------------------------------------------------------|
G|-----------------------------------------------------------------------------------|  
D|-8-----------8-8---8-8---------10----------10-10---10-10-------5----------5-5---5-5|  
A|-6-----------6-6---6-6---------8-----------8--8----8--8--------3----------3-3---3-3|  
E|-----------------------------------------------------------------------------------|  
                                       
e|---------------------------------------------------------------------------|
B|---------------------------------------------------------------------------|
G|---------------------------------------------------------------------------|
D|---------------------------------------------------------------------------| x3
A|--------6-----------6-6---6-6----------------------------------------------| 
E|--------4-----------4-4---4-4----------------------------------------------|

************************************

| /   slide up
| \   slide down
| h   hammer-on
| p   pull-off
| ~   vibrato
| +   harmonic
| x   Mute note
| b   Bend
| pb  Pre-bend
| br  Bend release
| pbr Pre-bend release
| brb Bend release bend

************************************

            
            
Suggest correction
Creating personal tab
Creating personal tab
You can edit any tab online and save it as your Personal.

You can edit, replace or remove any tab part or add personal notes – all changes will be seen only by you.

Personal tabs can be accessed anytime from any device, even offline.
Learn more »
comments
print report bad tab
1 comment total.
0 reply
lg187 2,777 Sep 17, 2015 05:51 PM, edited on September 18 2015, 04:59 pm

Hey! Just some corrections you may wanna put in:

Guitar 2
e|----------3---------------4---------------3---------------4------|
B|-----4---------4-----6---------6-----4---------4-----4---------4-|
G|-----------------------------------------------------------------|
D|-----------------------------------------------------------------| x2
A|-----------------------------------------------------------------|
E|-----------------------------------------------------------------|

Second & fourth bars of verse 1:
e|-----------------------------------------------------------------------|
B|-----------------------------------------------------------------------|
G|-----------------------------------------------------------------------|
D|-8-8-8-8-8-8-8-8-8-8-8-8-8-8-8-8-----------------------8-8-8-8-|
A|-6-6-6-6-6-6-6-6-5-5-5-5-5-5-5-5-6-6-6-6-6-6-6-6-6-6-6-6-6-6-6-|
E|---------------------------------4-4-4-4-4-4-4-4-4-4-4---------|

Guitar 2 about 30 seconds in:
e|----------3-------------------------------4---------------4------|
B|-----4---------4----------3----------4---------4-----4---------4-|
G|---------------------3---------3---------------------------------|
D|-----------------------------------------------------------------|
A|-----------------------------------------------------------------|
E|-----------------------------------------------------------------|

First bar of chorus:
e|------------------------------------------------------------------------------------|
B|---------------------------------------------------------------4----------4-4---4-4-|
G|-8-----------8-8---8-8---------7-----------7--7----7--7--------5----------5-5---5-5-|
D|-8-----------8-8---8-8---------8-----------8--8----8--8--------5----------5-5---5-5-|
A|-6-----------6-6---6-6---------8-----------8--8----8--8--------3----------3-3---3-3-|
E|-------------------------------6-----------6--6----6--6-----------------------------|

Prechorus 1 & 2:

e|-------------------|
B|-------------------|
G|-------------------|
D|-5-----3-----------|
A|-3--x8-1--x8-6--x6-|
E|-------------4-----|

Verse 2 second bar:
e|-----------------------------------------------------------------|
B|-----------------------------------------------------------------|
G|-----------------------------------------------------------------|
D|-8-8-8-8-8-8-8-8-8-8-8-8-8-8-8-8---------------------------------|
A|-6-6-6-6-6-6-6-6-5-5-5-5-5-5-5-5-6-6-6-6-6-6-6-6-6-6-6-6-6-6-6-6-|
E|---------------------------------4-4-4-4-4-4-4-4-4-4-4-4-4-4-4-4-|

Bridge:
Guitar 1
We're fading out...
e|---------------------------------------------------------------------------|
B|-4-4-4---------4-----------------------------------------------------------|
G|-5-5-5---------5-7-7-7---------8-8-8--------------------------------------------|
D|-5-5-5---------5-7-7-7---------8-8-8---------8-------------------------| x2
A|-3-3-3---------3-5-5-5---------6-6-6---------6-6-6-6-------------------|
E|-----------------------------------------------4-4-4-------------------|

Then after:
Guitar 1
e|--------------------------------------------------------------------------|
B|--------------------------------------------------------------------------|
G|--------------------------------------------------------------------------|
D|-5-----3--------------------------------------------------------------------|
A|-3--x8-1--x8-6-------------------------------------------------------------------|
E|-------------4--x12-----------------------------------------------------------|
* * *Gradually lift Palm mute and get louder
Guitar 2
e|-11---|-10---|----------------------6---6-8----------------------------------|
B|---13-|---11-|-(pause)-6666-8-6-8-9---9----------------------------------|
G|------|------|--------------------------------------------------------------|
D|------|------|--------------------------------------------------------------|
A|------|------|--------------------------------------------------------------|
E|---4x-|---4x-|--------------------------------------------------------------|

Bridge pt. 2 Guitar 2
e|-3------1-------3---------------3~-------------------------------------------|
B|-4--x16-3-------4------4444444444~-----------------------------------------|
G|--------3---x16-5--x16-5555555555~-------------------------------------|
D|-----------------------6---6-6~--------------------------------------------|
^Middle finger goes on 4, index finger plays the 3

Hope you know what parts I was talking about here! Thanks for tabbing it already!

guest
You may want to rate the tab now too:
select rating
Wanna post a correction for this tab? Suggest correction