Oops, an error
Loading. Please wait.

Castaway tab

version 2
version 2

Whole song

985 views 21 this week
no commentswrite comment
1 2 3 4 5
2 more votes to show rating
add to favorites
×
Save as Personal and add changes to this tab that will be seen only by you. Learn more ›
×
You can save this tab as Personal to edit and correct it or add notes. All changes will be seen only by you. Learn more »
launch autoscroll
font size
0
reset
how to read this tab
guitar tuner
edit
Autoscroll
slow
fast
+/-
esc
set tempo
stop
Author
Difficulty
Check out my guitar cover on YouTube!: https://www.youtube.com/watch?v=4PaNT_FP04E

Guitar 1 - Luke Hemmings
Guitar 2 - Michael Clifford


[Intro] (fade-in, guitar 2 only)

e|---------------------------------------------------------------------------------------------|
B|---------------------------------------------------------------------------------------------|
G|-5-5-5-5-5-5-5-8-8-8-8-8-8-8-----------------------------5-5-5-5-5-5-5-8-8-8-8-8-8-8------5~-|
D|-5-5-5-5-5-5-5-8-8-8-8-8-8-8-6-6-6-6-6-6-6-6-6-6-6-8-8-8-5-5-5-5-5-5-5-8-8-8-8-8-8-8---------|
A|-3-3-3-3-3-3-3-6-6-6-6-6-6-6-6-6-6-6-6-6-6-6-6-6-6-8-8-8-3-3-3-3-3-3-3-6-6-6-6-6-6-6---------|
E|-----------------------------4-4-4-4-4-4-4-4-4-4-4-6-6-6-------------------------------------|


[Verse 1]

Guitar 1
e|------------------------------------------------------4x-|
B|---------------------------------------------------------|
G|-5-5-5-5-5-5-5-3-3-3-3-3-3-3-8-8-8-8-8-8-8---------------|
D|-5-5-5-5-5-5-5-3-3-3-3-3-3-3-8-8-8-8-8-8-8-6-6-6-6-6-6-6-|
A|-3-3-3-3-3-3-3-1-1-1-1-1-1-1-6-6-6-6-6-6-6-6-6-6-6-6-6-6-|
E|-------------------------------------------4-4-4-4-4-4-4-|
   * * * * * * * * * * * * * * * * * * * * * * * * * * * *  
e|-----------------------------------------------------------------------------------|
B|-----------------------------------------------------------------------------------|
G|-----------------------------------------------------------------------------------|
D|-6-6-6-6-6-6-6-8-8-8-8-8-8-8-10101010101010-13-13-13-13-13-13-13-6-6-6-6-6-6-6-8~\-|
A|-6-6-6-6-6-6-6-8-8-8-8-8-8-8-10101010101010-13-13-13-13-13-13-13-6-6-6-6-6-6-6-8~\-|
E|-4-4-4-4-4-4-4-6-6-6-6-6-6-6-8-8-8-8-8-8-8--11-11-11-11-11-11-11-4-4-4-4-4-4-4-6~\-|
   * * * * * * * * * * * * * * * * * * * * *  *  *  *  *  *  *  *  * * * * * * * 

Guitar 2 (comes in after the first bar of Verse 1 Guitar 1 is played 2x)
e|---------6~-------------|------------------------|---------------|
B|-8~---8~------6~--3~/4~-|-8~---8~--6~--6~--3~/4~-|---------------|
G|----5-------------------|------------------------|---(silence)---|
D|------------------------|------------------------|---------------|
A|------------------------|------------------------|---------------|
E|------------------------|---------------------3x-|---------------|


[Chorus]

Guitar 1, 4x
e|-----------------------------------------------------------------|
B|-----------------------------------------------------------------|
G|-5-5-5-5-5-5-5-5-8-8-8-8-8-8-8-8---------------------------------|
D|-5-5-5-5-5-5-5-5-8-8-8-8-8-8-8-8-6-6-6-6-6-6-6-6-6-6-6-6-6-8-8-8-|
A|-3-3-3-3-3-3-3-3-6-6-6-6-6-6-6-6-6-6-6-6-6-6-6-6-6-6-6-6-6-8-8-8-|
E|---------------------------------4-4-4-4-4-4-4-4-4-4-4-4-4-6-6-6-|

Guitar 2, 2x
e|---------------------------------11~-10~-11~-|
B|-13~----8b9~-9~-----11b13~-8~----------------|
G|---------------------------------------------|
D|-10~---------6~------------------------------|
A|---------------------------------------------|
D|---------------------------------------------|


[Verse 2]

e|------------------------------------------------------4x-|
B|---------------------------------------------------------|
G|-5-5-5-5-5-5-5-3-3-3-3-3-3-3-8-8-8-8-8-8-8---------------|
D|-5-5-5-5-5-5-5-3-3-3-3-3-3-3-8-8-8-8-8-8-8-6-6-6-6-6-6-6-|
A|-3-3-3-3-3-3-3-1-1-1-1-1-1-1-6-6-6-6-6-6-6-6-6-6-6-6-6-6-|
E|-------------------------------------------4-4-4-4-4-4-4-|
   * * * * * * * * * * * * * * * * * * * * * * * * * * * *  
e|-----------------------------------------------------------------------------------|
B|-----------------------------------------------------------------------------------|
G|-----------------------------------------------------------------------------------|
D|-6-6-6-6-6-6-6-8-8-8-8-8-8-8-10101010101010-13-13-13-13-13-13-13-6-6-6-6-6-6-6-8~\-|
A|-6-6-6-6-6-6-6-8-8-8-8-8-8-8-10101010101010-13-13-13-13-13-13-13-6-6-6-6-6-6-6-8~\-|
E|-4-4-4-4-4-4-4-6-6-6-6-6-6-6-8-8-8-8-8-8-8--11-11-11-11-11-11-11-4-4-4-4-4-4-4-6~\-|
   * * * * * * * * * * * * * * * * * * * * *  *  *  *  *  *  *  *  * * * * * * * 

Guitar 2, 8x
e|------------------------|-------6~~~~~----------|------------------------|
B|-8~---8~--6~--6~--3~/4~-|-8~--8---6~--6~--3~/4~-|-8~---8~--6~--6~--3~/4~-|
G|------------------------|-----------------------|------------------------|
D|------------------------|-----------------------|------------------------|
A|------------------------|-----------------------|------------------------|
D|---------------------4x-|-----------------------|---------------------3x-|


[Chorus]


Guitar 1, 4x
e|-----------------------------------------------------------------|
B|-----------------------------------------------------------------|
G|-5-5-5-5-5-5-5-5-8-8-8-8-8-8-8-8---------------------------------|
D|-5-5-5-5-5-5-5-5-8-8-8-8-8-8-8-8-6-6-6-6-6-6-6-6-6-6-6-6-6-8-8-8-|
A|-3-3-3-3-3-3-3-3-6-6-6-6-6-6-6-6-6-6-6-6-6-6-6-6-6-6-6-6-6-8-8-8-|
E|---------------------------------4-4-4-4-4-4-4-4-4-4-4-4-4-6-6-6-|

Guitar 2, 2x
e|---------------------------------11~-10~-11~-|
B|-13~----8b9~-9~-----11b13~-8~----------------|
G|---------------------------------------------|
D|-10~---------6~------------------------------|
A|---------------------------------------------|
D|---------------------------------------------|


[Bridge]

Guitar 1, 8x
e|-----------------------------------------------------------------|
B|-----------------------------------------------------------------|
G|-5-5-5-5-5-5-5-5-8-8-8-8-8-8-8-8---------------------------------|
D|-5-5-5-5-5-5-5-5-8-8-8-8-8-8-8-8-6-6-6-6-6-6-6-6-6-6-6-6-6-8-8-8-|
A|-3-3-3-3-3-3-3-3-6-6-6-6-6-6-6-6-6-6-6-6-6-6-6-6-6-6-6-6-6-8-8-8-|
E|---------------------------------4-4-4-4-4-4-4-4-4-4-4-4-4-6-6-6-|

Guitar 2 (vocal melody transcribed to guitar), 2x
e|-11~---11---13b15r13--------|-11~---11---13b15r13---11-|----------------------|
B|----13~--13~--------13~-11~-|----13~--13~--------13~---|-13~------------------|
G|----------------------------|--------------------------|------8-8-8-8-101010~-|
D|----------------------------|--------------------------|----------------------|
A|----------------------------|--------------------------|------6-6-6-6-8-8-8~--|
D|-------------------------2x-|--------------------------|----------------------|


[Break] (no guitar 2):

e|-------------------------------------------------------------------------------------------------------|
B|-------------------------------------------------------------------------------------------------------|
G|-------------------------------------------------------------------------------------------------------|
D|-5-5-5-5-5-5-5-5-8-8-8-8-8-8-8-8---------------------------8-8-8-5-5-5-5-5-5-5-5-8-8-8-8-8-8-8-8-------|
A|-3-3-3-3-3-3-3-3-6-6-6-6-6-6-6-6-6-6-6-6-6-6-6-6-6-6-6-6-6-5-5-5-3-3-3-3-3-3-3-3-6-6-6-6-6-6-6-6---\\\-|
E|---------------------------------4-4-4-4-4-4-4-4-4-4-4-4-4-----------------------------------------\\\-|
   * * * * * * * * * * * * * * * * * * * * * * * * * * * * * * * * * * * * * * * * * * * * * pickscrape^


[Chorus]

Guitar 1, 4x
e|-----------------------------------------------------------------|
B|-----------------------------------------------------------------|
G|-5-5-5-5-5-5-5-5-8-8-8-8-8-8-8-8---------------------------------|
D|-5-5-5-5-5-5-5-5-8-8-8-8-8-8-8-8-6-6-6-6-6-6-6-6-6-6-6-6-6-8-8-8-|
A|-3-3-3-3-3-3-3-3-6-6-6-6-6-6-6-6-6-6-6-6-6-6-6-6-6-6-6-6-6-8-8-8-|
E|---------------------------------4-4-4-4-4-4-4-4-4-4-4-4-4-6-6-6-|

Guitar 2, 2x
e|---------------------------------11~-10~-11~-|
B|-13~----8b9~-9~-----11b13~-8~----------------|
G|---------------------------------------------|
D|-10~---------6~------------------------------|
A|---------------------------------------------|
D|---------------------------------------------|


[Outro]

Guitar 1, 8x
e|-----------------------------------------------------------------|
B|-----------------------------------------------------------------|
G|-5-5-5-5-5-5-5-5-8-8-8-8-8-8-8-8---------------------------------|
D|-5-5-5-5-5-5-5-5-8-8-8-8-8-8-8-8-6-6-6-6-6-6-6-6-6-6-6-6-6-8-8-8-|
A|-3-3-3-3-3-3-3-3-6-6-6-6-6-6-6-6-6-6-6-6-6-6-6-6-6-6-6-6-6-8-8-8-|
E|---------------------------------4-4-4-4-4-4-4-4-4-4-4-4-4-6-6-6-|

Guitar 2 (vocal melody transcribed to guitar), 2x
e|-11~---11---13b15r13--------|-11~---11---13b15r13---11-|----------------------|
B|----13~--13~--------13~-11~-|----13~--13~--------13~---|-13~------------------|
G|----------------------------|--------------------------|------8-8-8-8-101010~-|
D|----------------------------|--------------------------|----------------------|
A|----------------------------|--------------------------|------6-6-6-6-8-8-8~--|
D|-------------------------2x-|--------------------------|----------------------|



************************************

| x  Dead note
| r  Release
| b  Bend
| \  Slide down
| ~  Vibrato
 
************************************

            
            
Suggest correction
Creating personal tab
Creating personal tab
You can edit any tab online and save it as your Personal.

You can edit, replace or remove any tab part or add personal notes – all changes will be seen only by you.

Personal tabs can be accessed anytime from any device, even offline.
Learn more »
Give kudos to tab author, rate the tab!
1 2 3 4 5
comments
print report bad tab
guest
You may want to rate the tab now too:
select rating
Wanna post a correction for this tab? Suggest correction