Oops, an error
Loading. Please wait.

Catch 22 tab

version 2
version 2

Whole song

988 views 3 this week
no commentswrite comment
1 2 3 4 5
1 last vote to show rating
add to favorites
×
Save as Personal and add changes to this tab that will be seen only by you. Learn more ›
×
You can save this tab as Personal to edit and correct it or add notes. All changes will be seen only by you. Learn more »
launch autoscroll
font size
0
reset
how to read this tab
guitar tuner
edit
Autoscroll
slow
fast
+/-
esc
set tempo
stop
-----------------------------------------------------------------------------
                             CATCH 22 - 5 Seconds Of Summer
-----------------------------------------------------------------------------
E-mail: a7xlucas@live.com

Tuning: Drop D (DADGBe)

Guitar 1 - Luke Hemmings
Guitar 2 - Michael Clifford

~ = hold note
. = release/stop note
* = palm mute
/ or \ = slide from & to fret

Check our my guitar cover on YouTube!: https://www.youtube.com/watch?v=zqUsV1CmJec

Intro/verse (with delay effect):

Guitar 1, 3x
e|------------------------------------------------------------------------|
B|------------------------------------------------------------------------|
G|------------------------------------------------------------------------|
D|-------------------22222222---------------------------------------------|
A|----------22222222----------33333333-------------------3333333333333333-|
D|-55555555----------------------------55555555-44444444------------------|

Guitar 2, 3x
e|-------------------------------------------------------------------------|
B|-33333333-33333333-33333333-55555555-33333333-------------------44444444-|
G|----------------------------------------------22222222-------------------|
D|-------------------------------------------------------22222222----------|
A|-------------------------------------------------------------------------|
D|-------------------------------------------------------------------------|

Guitar 1
e|------------------------------------------------------------------------|
B|------------------------------------------------------------------------|
G|------------------------------------------------------------------------|
D|-------------------22222222---------------------------------------------|
A|----------22222222----------33333333-------------------333333333333-----|
D|-55555555----------------------------55555555-44444444--------------12\-|

Guitar 2
e|----------------------------------------------------------------------|
B|-33333333-33333333-33333333-55555555-33333333-------------------44444-|
G|----------------------------------------------22222222--------------.-|
D|-------------------------------------------------------22222222-------|
A|----------------------------------------------------------------------|
D|----------------------------------------------------------------------|

Chorus:

Guitar 1
e|------------------------------------------------------------------------------------------------------|
B|------------------------------------------------------------------------------------------------------|
G|-------44---------5555-------------555555-------------4444------5555-------44----555555---------------|
D|-55----44----2222-5555-55----00----555555--xxxx--5555-4444-2222-5555-55----44----555555-xxxx----------|
A|-55----22----2222-3333-55----00----333333--xxxx--5555-2222-2222-3333-55----22----333333-xxxx----------|
D|-55----------2222------55----00------------xxxx--5555------2222------55-----------------xxxx----------|

Guitar 2
e|--------------------------------------------------|-10---|-12--10--14-15-17----------------------------|
B|------------------5555-------------555555---------|---12-|---12--12--------15-----------555555---------|
G|-------77----9999-5555-------77----555555---------|------|-------------------------77---555555---------|
D|-99--------------------99----00-----------(pause)-|------|--------------------99---------------(pause)-|
A|-55----55----7777-3333-55----00----333333---------|------|--------------------55---55---333333---------|
D|-55--------------------55----00-------------------|---4x-|--------------------55-----------------------|

Postchorus:

Guitar 1
e|------------------------------------------------------------------------------------------%-------------|
B|-------------------------------------------------------------15151515-----15151515----------12b13r-12---|
G|-----------------------------------------------------------------------------------------------------12-|
D|-5~5----------9~9----------2~2----------10~10------------5~5-12121212-9~9-12121212-2~2--10~-------------|
A|-5~5----------9~9----------2~2----------10~10------------5~5----------9~9----------2~2--10~-------------|
D|-5~5----------9~9----------2~2----------10~10------------5~5----------9~9----------2~2--10~-------------|

Guitar 2
e|------------------------------------------------------------------------------------------%-------------|
B|---------------------------------------------15b17r-15--------------------------------------15b17r-15---|
G|-----16161616-----16161616-----16161616---------------16-----16161616-----16161616-------------------16-|
D|-5~5----------9~9----------2~2----------10~10----------.-5~5----------9~9----------2~2--10~-------------|
A|-5~5-14141414-9~9-14141414-2~2-14141414-10~10------------5~5-14141414-9~9-14141414-2~2--10~-------------|
D|-5~5----------9~9----------2~2----------10~10------------5~5----------9~9----------2~2--10~-------------|

Repeat:
Intro/Verse 2x

Verse starting at 1:16 - Guitar 3 plays these notes:
e|-19~-------24~----------19~---------15~-------------19~------(silence)-------19~-|
B|---------------------------------------------------------------------------------|
G|---------------------------------------------------------------------------------|
D|---------------------------------------------------------------------------------|
A|---------------------------------------------------------------------------------|
D|---------------------------------------------------------------------------------|

Extra verse bit before Chorus:

Guitar 2 (no Guitar 1)
e|-------------------------|
B|-33333333-33333333-44444-|
G|-----------------------.-|
D|-------------------------|
A|-------------------------|
D|-------------------------|

Repeat:
Chorus/Postchorus

Bridge:

Guitar 1
e|--------|--------|--------|--------|-----0~-|--------|--------|--------|--------|-----0~-|--------------|
B|---0----|---0----|---0----|---0----|-0------|---0----|---0----|---0----|---0----|-0------|--------4~~~\-|
G|-----0~-|-----0~-|-----0~-|-0---0~-|---0----|-----0~-|-----0~-|-----0~-|-0---0~-|---0----|-5~~~~~-5~~~\-|
D|-2------|-0------|--------|--------|--------|-2------|-0------|--------|--------|--------|-5~~~~~~~~~~\-|
A|--------|--------|-3------|--------|--------|--------|--------|-3------|--------|--------|-3~~~~~~~~~~\-|
D|-----4x-|-----4x-|-----4x-|-----3x-|--------|-----4x-|-----4x-|-----4x-|-----3x-|--------|--------------|

Guitar 2
e|--------------------------------------------|--------------------------------------------------|
B|--------------------------------------------|--------------------------------------------------|
G|--------------------------------------------|-----------------------------5~~~~~~~~~~~~~~~\----|
D|-------------(silence)----------------------|--------7------5-------------5~~~~~~~~~~~~~~~\-xx-|
A|--------------------------------------------|-2--x16-5--x16-3--x16-5--x16-3~~~~~~~~~~~~~~~\-xx-|
D|--------------------------------------------|-2--------------------5------------------------xx-|
                                                *      *      *      *
Final Chorus:

Guitar 1
e|--------------------------------------|-----------------------------1.-|------------------------2.-||
B|--------------------------------------|--------------------------------|---------------------------||
G|------4444------5555-----------555555-|-----------4444------55---------|-------------44-------5555-||
D|-5555-4444-2222-5555-5555-0000-555555-|-xxxx-5555-4444-2222-55-(pause)-|-(pause)-55--44--2222-5555-||
A|-5555-2222-2222-3333-5555-0000-333333-|-xxxx-5555-2222-2222-33---------|---------55--22--2222-3333-||
D|-5555------2222------5555-0000--------|-xxxx-5555------2222------------|---------55------2222------||

Guitar 1 cont'd                                       For the above part, play "1." then play the first
e|------------------------------------------------|   bar. Then skip the "1." and play "2." instead.
B|------------------------------------------------|
G|------44---555555-------------------------------|
D|-55---44---555555-xxxx--------------------------|
A|-55---22---333333-xxxx--------------------------|
D|-55---------------xxxx--------------------------|

Guitar 2
e|-----15--------------15------15------15-----------------------------|------|----------------------|
B|-15------15--19--17------17------15------15--19--17--15--------19---|-15---|-17--15--17-19--------|
G|---16--16--16--16--16--16--16--16--16--16--16--16--16--16-17-16--16-|---16-|---16--16-------------|
D|--------------------------------------------------------------------|------|----------------------|
A|--------------------------------------------------------------------|------|----------------------|
D|--------------------------------------------------------------------|---4x-|---------------12\----|

Guitar 2 cont'd (these notes are played faster)
e|-----------------|-------------------|---------------------------------------------------------------|
B|-/12121212121212-|-10/12121212121212-|-10-------10/12121212121212-101010101010\88888888-/11--x3-11~\-|
G|-----------------|-------------------|---1212~-------------------------------------------------------|
D|-----------------|-------------------|---------------------------------------------------------------|
A|-----------------|-------------------|---------------------------------------------------------------|
D|-----------------|----------------2x-|---------------------------------------------------------------|
      ^These are 12's                                     These are 10's^          ^ These are 8's

Outro:
Postchorus riff, but finish at the % symbol
Suggest correction
Creating personal tab
Creating personal tab
You can edit any tab online and save it as your Personal.

You can edit, replace or remove any tab part or add personal notes – all changes will be seen only by you.

Personal tabs can be accessed anytime from any device, even offline.
Learn more »
Give kudos to tab author, rate the tab!
1 2 3 4 5
comments
print report bad tab
guest
You may want to rate the tab now too:
select rating
Wanna post a correction for this tab? Suggest correction