Oops, an error
Loading. Please wait.

Catch Fire bass

283 views 9 this week
no commentswrite comment
1 2 3 4 5
3 more votes to show rating
add to favorites
×
Save as Personal and add changes to this tab that will be seen only by you. Learn more ›
×
You can save this tab as Personal to edit and correct it or add notes. All changes will be seen only by you. Learn more »
launch autoscroll
font size
0
reset
guitar tuner
edit
Autoscroll
slow
fast
+/-
esc
set tempo
stop
About this tab version
The notes are from the intro of the guitar riff for the first verse and chorus, and the notes from the guitar chords for the second verse, chorus, bridge and last chorus. Was this info helpful? Yes No
I do not use a plectrum to play this, but you can, if you want to.
I used the offical song on Spotify to write and play this bass tab, 
but the CD album track also works with this.

[Intro]

0:00

Rest

[Verse]

0:08

G|------------------------------|
D|-10-10-10-11-13-10-10-10-10-8-|
A|------------------------------|
E|------------------------------| X8

[Chorus]

0:41

G|------------------------------|
D|-10-10-10-11-13-10-10-10-10-8-|
A|------------------------------|
E|------------------------------| X7

[Instrumental]

1:10

Rest

[Verse]

1:18

G|-----------------------------------------------------------------|
D|-----------------------------------------------------------------|
A|---------------------------------4-4-4-4-4-4-4-4-----------------|
E|-4-4-4-4-4-4-4-4-4-4-4-4-4-4-4-4-----------------4-4-4-4-4-4-4-4-|

G|-----------------------------------------------------------------|
D|-----------------------------------------------------------------|
A|-----------------4-4-4-4-4-4-4-4---------------------------------|
E|-1-1-1-1-1-1-1-1-----------------4-4-4-4-4-4-4-4-4-4-4-4-4-4-4-4-|

G|-----------------------------------------------------------------|
D|-----------------------------------------------------------------|
A|---------------------------------4-4-4-4-4-4-4-4-----------------|
E|-4-4-4-4-4-4-4-4-4-4-4-4-4-4-4-4-----------------4-4-4-4-4-4-4-4-|

G|-----------------------------------------------------------------|
D|-----------------------------------------------------------------|
A|-----------------4-4-4-4-4-4-4-4---------------------------------|
E|-1-1-1-1-1-1-1-1-----------------4-4-4-4-4-4-4-4-4-4-4-4-4-4-4-4-|

[Chorus]

1:51

G|------------------------------------------------|    |------------------------|
D|------------------------------------------------|    |------------------------|
A|-------------4-4-4--4-4-------------------------|    |-------------4-4-4--4-4-|
E|-1-1-1--1-1--------------4-4-4--4-4--4-4-4--4-4-| X3 |-6-6-6--6-6-------------|

G|----------------------|
D|----------------------|
A|----------------------|
E|-8-8-8-9-11-8-8-8-8-6-|

[Bridge]

2:24

G|------------------------------------------------|
D|------------------------------------------------|
A|-3-3-3--3-3--4-4-4--4-4-------------------------|
E|-------------------------4-4-4--4-4--3-3-3--3-3-|

G|------------------------------------------------|
D|------------------------------------------------|
A|-3-3-3--3-3--4-4-4--4-4-------------------------|
E|-------------------------4-4-4--4-4-------------|

[Chorus]

2:41

G|--------------|
D|--------------|
A|------4~------|
E|-1~--------4~-|

G|------------------------------------------------|    |------------------------|
D|------------------------------------------------|    |------------------------|
A|-------------4-4-4--4-4-------------------------|    |-------------4-4-4--4-4-|
E|-1-1-1--1-1--------------4-4-4--4-4--4-4-4--4-4-| X2 |-6-6-6--6-6-------------| X2

G|----------------------|
D|----------------------|
A|----------------------|
E|-8-8-8-9-11-8-8-8-8-6-| X2

****************************

~ = Vibrato

            
            
Suggest correction
Creating personal tab
Creating personal tab
You can edit any tab online and save it as your Personal.

You can edit, replace or remove any tab part or add personal notes – all changes will be seen only by you.

Personal tabs can be accessed anytime from any device, even offline.
Learn more »
Give kudos to tab author, rate the tab!
1 2 3 4 5
comments
print report bad tab
guest
You may want to rate the tab now too:
select rating
Wanna post a correction for this tab? Suggest correction