Oops, an error
Loading. Please wait.

Catch Fire chords

version 3
version 3

Whole song

5,608 views 15 this week
2 commentsread comments
1 2 3 4 5
x 15
add to favorites
×
Save as Personal and add changes to this tab that will be seen only by you. Learn more ›
×
You can save this tab as Personal to edit and correct it or add notes. All changes will be seen only by you. Learn more »
launch autoscroll
font size
0
reset
transpose
0
reset
display chords
guitar tuner
edit
Autoscroll
slow
fast
+/-
esc
set tempo
stop
Strumming
There is no strumming pattern for this song yet. and get +5 IQ
I'm already too obsessed with this album and I love this song. The other versions were great but for how
I would play it, I felt this went better with the vocals. 

Capo on 1
Single Strum*

e|---------------------------------------------------------------------------|
B|-0-0-0-1-3----0-0-0-0------0-0-0-1-3----0-0-0-0----------------------------|
G|----------------------2-------------------------2--------------------------|
D|---------------------------------------------------------------------------|
A|---------------------------------------------------------------------------|
E|---------------------------------------------------------------------------|


   G                         C                       G
Oh say, can you see? This is not who I'm supposed to be
C                 Em           D
Without you I'm nobody killing time
  G                          C                G
I tried to deceive, tried to win you desperately
        C                    Em                D
Now I'm lost in the swirling sea of your sorry eyes

       Em             C                      G
All my life I've been waiting for moments to come
             Em       C                       G
When I catch fire and watch over you like the sun
       Em       C                     G
I will fight to fix up and get things right
                   Am        C                      G
I can't change the world but maybe I'll change your mind

(Optional)

e|---------------------------------------------------------------------------|
B|-0-0-0-1-3----0-0-0-0------0-0-0-1-3----0-0-0-0----------------------------|
G|----------------------2-------------------------2--------------------------|
D|---------------------------------------------------------------------------|
A|---------------------------------------------------------------------------|
E|---------------------------------------------------------------------------|

   G                       C                 G
Oh say, do you know? I'm a fool in a one man show
      C          Em         D
I'm a broken stereo, out of time
   G                     C                  G
So how does it feel? All alone, is it so surreal?
          C                   Em                  D
Cause the ghost of survivor's guilt can be so unkind

       Em             C                      G
All my life I've been waiting for moments to come
             Em       C                       G
When I catch fire and watch over you like the sun
       Em       C                     G
I will fight to fix up and get things right
                   Am        C                      G
I can't change the world but maybe I'll change your mind

G
The words you speak, surrounding me
G                   D
This is broken love in the first degree
G
The air you breathe is haunting me
G                      D
Maybe I'll change your mind

       Em*            C*                      G
All my life I've been waiting for moments to come
             Em       C                       G
When I catch fire and watch over you like the sun
       Em       C                     G
I will fight to fix up and get things right
                   C        
I can't change the world
                          Am
I know I can't change the world
                           G
But maybe I'll change your mind

(Optional)
e|---------------------------------------------------------------------------|
B|-0-0-0-1-3----0-0-0-0------0-0-0-1-3----0-0-0-0----------------------------|
G|----------------------2-------------------------2--------------------------|
D|---------------------------------------------------------------------------|
A|---------------------------------------------------------------------------|
E|---------------------------------------------------------------------------|

End on G

            
            
Suggest correction
Creating personal tab
Creating personal tab
You can edit any tab online and save it as your Personal.

You can edit, replace or remove any tab part or add personal notes – all changes will be seen only by you.

Personal tabs can be accessed anytime from any device, even offline.
Learn more »
comments
print report bad tab
2 comments total.
+1 reply
millornix 12 Nov 21, 2015 04:29 AM

I love this-amazing work :D

0 reply
Sue1224 10 Dec 24, 2015 07:39 AM

What's the strumming pattern?

guest
You may want to rate the tab now too:
select rating
Wanna post a correction for this tab? Suggest correction