Oops, an error
Loading. Please wait.

Dont Stop Tab

version 2
version 2

Acoustic

Interactive

811 views 3 this week
no commentswrite comment
1 2 3 4 5
please rate
add to favorites
launch autoscroll
font size
0
reset
how to read this tab
guitar tuner
Autoscroll
slow
fast
+/-
esc
set tempo
stop
Help us to improve Ultimate-Guitar.com Take our survey!
×
Author
Difficulty
Tuning
advanced
D A D F# A D
"Don't Stop" (Acoustic) - 5 Seconds of Summer
Tabbed By Justin Starr
*****Tuning: DADF#AD

INCLUDES VOCAL MELODY


Intro and Verses: Guitar:
Palm Mute
E|-------------------------------------------------------------------|
B|-------------------------------------------------------------------|
F#|---------------------7-7-7-8--------------------------------------|
D|---0----4------5------x-x-x-x--------------------------------------| repeat throughout verse
A|---0(x5)4-(x4)-5-(x3)-4-4-4-5--------------------------------------|
D|---0----4------5---------------------------------------------------|


Verse Vocal Melody:

E|-----------------------|-------------------------------------------|
B|-----------------------|-------------------------------------------|
F#|3-3-3-3-0---5-5-5-5-3-|(x2)-8-8-8-8-7-7--5-5-5-5-5-3----0---------|
D|-----------------------|-----------------------------------0-0-2-0-| 
A|-----------------------|-------------------------------------------|
D|-----------------------|-------------------------------------------|

E|-----------------------|---------------------------------------------------|
B|-----------------------|---------------------------------------------------|
F#|3-3-3-3-0---5-5-5-5-3-|(x2)-7-7-7-7-5-5-5-5-3-3-1--7-7-7-7-5-5-5-5-3-3-5-7|
D|-----------------------|---------------------------------------------------| 
A|-----------------------|---------------------------------------------------|
D|-----------------------|---------------------------------------------------|


Chorus: Guitar:

E|-------------------------------------------------------------------|
B|-------------------------------------------------------------------|
F#|8-----------------------------8-----------------------------------|
D|-7-(x16)-5-------7------5------7-(x9)-554466-----------------------|
A|-5-------5-(x16)-7-(x8)-5-(x8)-5------554466-----------------------|
D|-0-------5-------7------5------0------554466-----------------------|

Chorus Vocal Melody:

E|-------------------------------------------------------------------|
B|-7-9----9-7----------9-7-----7-7-9-7-------7-7-9-7-----------------|
F#|-----------8---8--------8-----------8-------------8-------8---8--8|
D|--------------9---9--------9-----------9-7-----------9-7-7---7---7-|
A|-------------------------------------------------------------------|
D|-------------------------------------------------------------------|

Bridge: Guitar:
E|-------------------------------------------------------------------|
B|-------------------------------------------------------------------|
F#|------------------------------------------------------------------|
D|-4-------5-------4-------7-----------------------------------------|
A|-4-(x16)-5-(x16)-4-(x16)-7-(x16)-----------------------------------|
D|-4-------5-------4-------7-----------------------------------------|

Bridge Vocal Melody:

E|-------------------------------------------------------------------|
B|-9-9-9-9-9-9-9-9-9-7-5-5/7-5--------9-9-9-9-9-9-9-9-9-7-5-5/7\-----|
F#|----------------------------(5-9-7)-------------------------------|
D|-------------------------------------------------------------------|
A|-------------------------------------------------------------------|
D|-------------------------------------------------------------------|

Slow Chorus Guitar:

E|-------------------------------------------------------------------|
B|---9---9---9-10-9--------------------------------------------------|
F#|-8-8-8-8-8-8--8-8-------------------------------------------------|
D|-------------------------------------------------------------------|
A|-------------------------------------------------------------------|
D|-------------------------------------------------------------------|


Slow Chorus Vocal Melody:

E|-------------------------------------------------------------------|
B|-------------------------------------------------------------------|
F#|------------------------------------------------------------------|
D|-2-4---4-2-0---0-----4-2-0---2-2-4-2-0-----2-2-4-2-0------0-0-0----|
A|-------------2---2---------2-----------2-0-----------2-0-0-0-0-----|
D|-------------------------------------------------------------------|

Repeat chorus until end



Suggest correction
Give kudos to tab author, rate the tab!
1 2 3 4 5
comments
print report bad tab
guest
You may want to rate the tab now too:
select rating
Wanna post a correction for this tab? Suggest correction