Oops, an error
Loading. Please wait.

Dont Stop Bass Tab

version 1
version 1

Whole song

Interactive

15,444 views 75 this week
no commentswrite comment
1 2 3 4 5
excellent!
x 6
add to favorites
launch autoscroll
font size
0
reset
guitar tuner
Tab Pro tools
  • play this tab
  • loop segment
  • change instrument
  • show fretboard
  • metronome
×
Best way to learn
"Dont Stop"
Autoscroll
slow
fast
+/-
esc
set tempo
stop
Contributor
Difficulty
Tuning
intermediate
D# G# C# F# A# D#
  Intro
F#|-----------------------------------------------------------------|
C#|-----------------------------------------------------------------|
G#|-----------------------------------------------------------------|
D#|-0-0-0-0-0-4-4-5-5-5-5-5---------0-0-0-0-0-4-4-5-5-5-5-5---------|
    1 + 2 + 3 + 4 + 1 + 2 + 3 + 4 + 1 + 2 + 3 + 4 + 1 + 2 + 3 + 4 +

  Verse
F#|-----------------------------------------------------------------|
C#|-----------------------------------------------------------------|
G#|-----------------------------------------------------------------|
D#|-0-0-0-0-0-4-4-5-5-5-5-5---------0-0-0-0-0-4-4-5-5-5-5-5---------|
    1 + 2 + 3 + 4 + 1 + 2 + 3 + 4 + 1 + 2 + 3 + 4 + 1 + 2 + 3 + 4 +

F#|-----------------------------------------------------------------|
C#|-----------------------------------------------------------------|
G#|-----------------------------------------------------------------|
D#|-0-0-0-0-0-4-4-5-5-5-5-5---------0-0-0-0-0-4-4-5-5-5-5-5-----\-\-|
    1 + 2 + 3 + 4 + 1 + 2 + 3 + 4 + 1 + 2 + 3 + 4 + 1 + 2 + 3 + 4 +

F#|-----------------------------------------------------------------|
C#|-----------------------------------------------------------------|
G#|-------------------------666-6-7-------------------------666-6-7-|
D#|-0-0-0-0-0-4-4-5-5-5-5-5---------0-0-0-0-0-4-4-5-5-5-5-5---------|
    1 + 2 + 3 + 4 + 1 + 2 + 3 + 4 + 1 + 2 + 3 + 4 + 1 + 2 + 3 + 4 +

   Pre-Chorus
F#|-----------------------------------------------------------------|
C#|-------------------------------------------------7-7-7-7-7-7-7-7-|
G#|-----------------6-6-6-6-6-6-6-6-9-9-9-9-9-9-9-9-----------------|
D#|-7-7-7-7-7-7-7-7-------------------------------------------------|
    1 + 2 + 3 + 4 + 1 + 2 + 3 + 4 + 1 + 2 + 3 + 4 + 1 + 2 + 3 + 4 +

   Chorus x2
F#|------------------------------------------------------------------|
C#|o-------------------------------6---------------------------------|
G#|o-7-7-7-7-7-7-7-7-7-7-7-9-9-9-9-----------------------------------|
D#|----------------------------------5-5-5-5-5-5-5-5-5-5-5-5-5-5-4-5-|
     1 + 2 + 3 + 4 + 1 + 2 + 3 + 4 + 1 + 2 + 3 + 4 + 1 + 2 + 3 + 4 +

F#|------------------------------------------------------------------|
C#|-----------------------------------------------------------------o|
G#|---------------------------------7-7-7-7-7-7-7-7-----------------o|
D#|-7-7-7-7-7-7-7-7-5-5-5-5-5-5-5-4-----------------5-5-6-6-7-7-7-7--|
    1 + 2 + 3 + 4 + 1 + 2 + 3 + 4 + 1 + 2 + 3 + 4 + 1 + 2 + 3 + 4 +

   Verse
F#|-----------------------------------------------------------------|
C#|-----------------------------------------------------------------|
G#|-----------------------------------------------------------------|
D#|-0-0-0-0-0-4-4-5-5-5-5-5---------0-0-0-0-0-4-4-5-5-5-5-5---------|
    1 + 2 + 3 + 4 + 1 + 2 + 3 + 4 + 1 + 2 + 3 + 4 + 1 + 2 + 3 + 4 +

F#|-----------------------------------------------------------------|
C#|-----------------------------------------------------------------|
G#|-------------------------666-6-7-------------------------666-6-7-|
D#|-0-0-0-0-0-4-4-5-5-5-5-5---------0-0-0-0-0-4-4-5-5-5-5-5---------|
    1 + 2 + 3 + 4 + 1 + 2 + 3 + 4 + 1 + 2 + 3 + 4 + 1 + 2 + 3 + 4 +
  
   Pre-Chorus
F#|-----------------------------------------------------------------|
C#|-------------------------------------------------7-7-7-7-7-7-7-7-|
G#|-----------------6-6-6-6-6-6-6-6-9-9-9-9-9-9-9-9-----------------|
D#|-7-7-7-7-7-7-7-7-------------------------------------------------|
    1 + 2 + 3 + 4 + 1 + 2 + 3 + 4 + 1 + 2 + 3 + 4 + 1 + 2 + 3 + 4 +

   Chorus x2
F#|------------------------------------------------------------------|
C#|o-------------------------------6---------------------------------|
G#|o-7-7-7-7-7-7-7-7-7-7-7-9-9-9-9-----------------------------------|
D#|----------------------------------5-5-5-5-5-5-5-5-5-5-5-5-5-5-4-5-|
     1 + 2 + 3 + 4 + 1 + 2 + 3 + 4 + 1 + 2 + 3 + 4 + 1 + 2 + 3 + 4 +

F#|------------------------------------------------------------------|
C#|-----------------------------------------------------------------o|
G#|---------------------------------7-7-7-7-7-7-7-7-----------------o|
D#|-7-7-7-7-7-7-7-7-5-5-5-5-5-5-5-4-----------------5-5-6-6-7-7-7-7--|
    1 + 2 + 3 + 4 + 1 + 2 + 3 + 4 + 1 + 2 + 3 + 4 + 1 + 2 + 3 + 4 +

   Bridge
F#|-----------------------------------------------------------------|
C#|-----------------------------------------------------------------|
G#|-------------------------------------------------4-4-4-----------|
D#|-4-4-4-4-4-4-4-4-4-4-4-4-4-4-4-4-5-5-5-5-5-5-5-5-------7-7-7-5-5-|
    1 + 2 + 3 + 4 + 1 + 2 + 3 + 4 + 1 + 2 + 3 + 4 + 1 + 2 + 3 + 4 +

F#|-----------------------------------------------------------------|
C#|-----------------------------------------------------------------|
G#|-----------------------------------------------------------------|
D#|-4-4-4-4-4-4-4-4-4-4-4-4-4-4-4-4-7-7-7-7-7-7-7-7-7-7-7-7-7-7-7-7-|
    1 + 2 + 3 + 4 + 1 + 2 + 3 + 4 + 1 + 2 + 3 + 4 + 1 + 2 + 3 + 4 +

   Chorus
F#|-----------------------------------------------------------------|
C#|-----------------------------------------------------------------|
G#|-----------------------------------------------------------------|
D#|-----------------------------------------------------------------|
    1 + 2 + 3 + 4 + 1 + 2 + 3 + 4 + 1 + 2 + 3 + 4 + 1 + 2 + 3 + 4 +

F#|-----------------------------------------------------------------|
C#|-----------------------------------------------------------------|
G#|---------------------------------7-7-7-7-7-7-7-7-----------------|
D#|-------------------------------------------------5-5-6-6-7-7-7-7-|
    1 + 2 + 3 + 4 + 1 + 2 + 3 + 4 + 1 + 2 + 3 + 4 + 1 + 2 + 3 + 4 +
 
  Chorus 2:09
F#|-----------------------------------------------------------------|
C#|-------------------------------6---------------------------------|
G#|-7-7-7-7-7-7-7-7-7-7-7-9-9-9-9-----------------------------------|
D#|---------------------------------5-5-5-5-5-5-5-5-5-5-5-5-5-5-4-5-|
    1 + 2 + 3 + 4 + 1 + 2 + 3 + 4 + 1 + 2 + 3 + 4 + 1 + 2 + 3 + 4 +

F#|-----------------------------------------------------------------|
C#|-----------------------------------------------------------------|
G#|---------------------------------7-7-7-7-7-7-7-7-----------------|
D#|-7-7-7-7-7-7-7-7-5-5-5-5-5-5-5-4-----------------5-5-6-6-7-7-7-7-|
    1 + 2 + 3 + 4 + 1 + 2 + 3 + 4 + 1 + 2 + 3 + 4 + 1 + 2 + 3 + 4 +

F#|-----------------------------------------------------------------|
C#|---------------------------6-------------------------------------|
G#|-7-7-7-7-7-7-7-7-7-7-7-9-9---9-----------------------------------|
D#|-------------------------------5-5-5-5-5-5-5-5-5-5-5-5-5-5-4-5-4-|
    1 + 2 + 3 + 4 + 1 + 2 + 3 + 4 + 1 + 2 + 3 + 4 + 1 + 2 + 3 + 4 +

F#|-----------------------------------------------------------------|
C#|-----------------------------------------------------------------|
G#|---------------------------------7-7-7-7-7-7-7-7-----------------|
D#|-7-7-7-7-7-7-7-7-5-5-5-5-5-5-5-4-----------------5-5-6-6-7-7-7-7-|
    1 + 2 + 3 + 4 + 1 + 2 + 3 + 4 + 1 + 2 + 3 + 4 + 1 + 2 + 3 + 4 +

F#|-----------------------------------------------------------------|
C#|-------------6-6-6-----------------------------------------------|
G#|-7-7-7-7-9-9-------7-7-7-----------------------------------------|
D#|-------------------------4-4-4-4-5-5-5-5-5-5-5-5-5-5-5-5-5-5-4-5-|
    1 + 2 + 3 + 4 + 1 + 2 + 3 + 4 + 1 + 2 + 3 + 4 + 1 + 2 + 3 + 4 +

F#|-----------------------------------------------------------------|
C#|-----------------------------------------------------------------|
G#|---------------------------------7-7-7-7-7-7-7-7-----------------|
D#|-7-7-7-7-7-7-7-7-5-5-5-5-5-5-5-4-----------------5-5-6-6-7-7-7-7-|
    1 + 2 + 3 + 4 + 1 + 2 + 3 + 4 + 1 + 2 + 3 + 4 + 1 + 2 + 3 + 4 +

F#|-----------------|
C#|-----------------|
G#|-7-\-\-\---------|
D#|-----------------|
   1 + 2 + 3 + 4 +

Tabbed By Jack Mills
comments
print report bad tab
I want to post or [tab]
guest
You may want to rate the tab now too:
select rating
Please do not post tabs as comments. Select "correction" instead!