Oops, an error
Loading. Please wait.

Dont Stop Tab

version 1
version 1

Interactive

Video

18,332 views 60 this week
2 commentsread comments
1 2 3 4 5
x 6
add to favorites
launch autoscroll
font size
0
reset
how to read this tab
guitar tuner
Autoscroll
slow
fast
+/-
esc
set tempo
stop
Help us to improve Ultimate-Guitar.com Take our survey!
×
Author
Tuning
D A D G B E
-------------------------------------------------------------------------------
                             Don't Stop - 5 Seconds of Summer
-------------------------------------------------------------------------------
Tabbed by:TomShields

Tuning:Drop D

[Verse]
 e|------------------|
 B|------------------|
 G|-------------7778-|
 D|-111115566666xxxx-|
 A|-1111155666665556-|
 D|-111115566666-----|
P.M ............   

[Pre-Chorus]
e|-1111111111111111-| Palm Mute at the start and go from quiet to loud in a build up to chorus. I'd listen to
B|-3333333333333333-| the song and match it up.
G|-1111111111111111-|
D|-3333333333333333-|
A|-1111111111111111-|
D|------------------|

[Chorus]
e|-----------------------------------------------| Watch the music video and you can see that they strum 
B|-----------------------------------------------| really fast.
G|-8------------------------------8--------------|
D|-8-(x16)--6-------8------6------8-(x9)-6678888-|
A|-6--------6-(x16)-8-(x8)-6-(x8)-6------6678888-|
D|----------6-------8------6-------------6678888-|

[Middle 8]
e|---------------------------------|
B|---------------------------------|
G|---------------------------------|
D|-5-------6-------5-------8-------|
A|-5-(x16)-6-(x16)-5-(x16)-8-(x16)-|
D|-5-------6-------5-------8-------|

[Slow Chorus]
e|-------------------|
B|--8---8---8--9-8---|
G|-8-8-8-8-8-8--8-8--|
D|-------------------|
A|-------------------|
D|-------------------|


[Intro (Verse)] x2
[Verse] x6
[Prechorus] x1
[Chorus] x2
[Verse] x4
[Chorus] x2
[Middle 8] x1
[Slow chorus] x4
[Chorus] x3 
Suggest correction
comments
print report bad tab
2 comments total. show 1 bad comment
+1 reply
Jackie5SOS 10 Jun 24, 2014 01:01 PM

Overall: Amazing tab. Sounds accurate. Regarding pre-chorus. I think its best you try not to play the 6th string at all. I think the open note hurts the cool sound a bit. It sounds fine for me. Easy tab and not hard to play and sounds accurate.

guest
You may want to rate the tab now too:
select rating
Wanna post a correction for this tab? Suggest correction