Oops, an error
Loading. Please wait.
We have Chord Pro version of Dont Stop.
It's the closest thing you can get to the original song and it has interactive parts. Check out the tab »
×
2,785 views 15 this week
3 commentsread comments
1 2 3 4 5
x 3
add to favorites
launch autoscroll
font size
0
reset
how to read this tab
guitar tuner
Autoscroll
slow
fast
+/-
esc
set tempo
stop
Author
Difficulty
novice
-------------------------------------------------------------------------------
                            5 Seconds Of Summer - Dont Stop
-------------------------------------------------------------------------------
Tabbed by: Oscar96
E-mail: -----

Tuning: e,B,G,D,A,D#

    Intro:
e |---------------------------------------------------------------------------|
B |---------------------------------------------------------------------------|
G |------------------------------------7--7--7-/-8----------------------------|
D |---------------------------------------------------------------------------|
A |------------------------------------5--5--5-/-6----------------------------|
D#|0--0--0--0--0--4--4--5--5--5--5--5-----------------------------------------|x2
   pm pm pm pm pm pm pm pm pm pm pm pm
    Verse:
e |---------------------------------------------------------------------------|
B |---------------------------------------------------------------------------|
G |------------------------------------7--7--7-/-8----------------------------|
D |---------------------------------------------------------------------------|
A |------------------------------------5--5--5-/-6----------------------------|
D#|0--0--0--0--0--4--4--5--5--5--5--5-----------------------------------------|x6
   pm pm pm pm pm pm pm pm pm pm pm pm

   Pre-Chorus
e |---------------------------------------------------------------------------|
B |---------------------------------------------------------------------------|
G |---------------------------------------------------------------------------|
D |---------------------------------------------------------------------------|
A |-8-8-8-8-8-8-8-8-8-8-8-8----------- Play this note before to---------------|
D#|-7-7-7-7-7-7-7-7-7-7-7-7----------- begin the chorus-----------------------|
   
   Chorus
e |---------------------------------------------------------------------------|
B |---------------------------------------------------------------------------|
G |-8-------------------------------------------------------------------------|
D |-8-------------------------------------------------------------------------|
A |-6-x16---6-------8------6------1-------------------------------------------|
D#|---------5-x16---7-x8---5-x8---0-x16---------------------------------------|x2
  
  Repeat :Verse x4
  Repeat :Pre-Chorus
  Repeat :Chorus x2   

  Bridge
e |---------------------------------------------------------------------------|
B |---------------------------------------------------------------------------|
G |---------------------------------------------------------------------------|
D |---------------------------------------------------------------------------|
A |-5-------6-------5-------8-------------------------------------------------|
D#|-4-x16---5-x16---4-x16---7-x16---------------------------------------------|
 
   Chorus
e |---------------------------------------------------------------------------|
B |----8------8------8---9---8------------------------------------------------|
G |--8---8- 8---8--8---8---8---8-x4-------------------------------------------|
D |---------------------------------------------------------------------------|
A |---------------------------------------------------------------------------|
D#|---------------------------------------------------------------------------|
   Chorus x3

Thanks for see my tab ;)

************************************

| /   slide up
| \   slide down
| h   hammer-on
| p   pull-off
| ~   vibrato
| +   harmonic
| x   Mute note
| b   Bend
| pb  Pre-bend
| br  Bend release
| pbr Pre-bend release
| brb Bend release bend

************************************
Suggest correction
Give kudos to tab author, rate the tab!
1 2 3 4 5
comments
print report bad tab
3 comments total.
0 reply
lg187 2,431 Jun 26, 2014 01:53 PM

The tuning is really drop D with every note on the low D# string raised by 1 fret

guest
You may want to rate the tab now too:
select rating
Wanna post a correction for this tab? Suggest correction