Oops, an error
Loading. Please wait.
We have Chord Pro version of Dont Stop.
It's the closest thing you can get to the original song and it has interactive parts. Check out the tab »
×
409 views 9 this week
no commentswrite comment
1 2 3 4 5
3 more votes to show rating
add to favorites
×
Save as Personal and add changes to this tab that will be seen only by you. Learn more ›
×
You can save this tab as Personal to edit and correct it or add notes. All changes will be seen only by you. Learn more »
launch autoscroll
font size
0
reset
how to read this tab
guitar tuner
edit
Autoscroll
slow
fast
+/-
esc
set tempo
stop
-------------------------------------------------------------------------------
                             Don't stop- 5sos
-------------------------------------------------------------------------------
Tuning:Open Tuning DADGAD

verse

D|000------------------------------------------------------------------------|
A|000------------------------------------------------------------------------|
G|777--777--666-7------------------------------------------------------------|
D|000--xxx--666-7------------------------------------------------------------|
A|000--445--444-5------------------------------------------------------------|
D|000--445-------------------------------------------------------------------|
play for intro and verse

pre chorus
d|00-0-00-0-00-0---------------------------------------------------------------|
A|00-0-00-0-00-0---------------------------------------------------------------|
G|77-7-77-7-77-7--77777--------------------------------------------------------|
D|77-7-77-7-77-7--77777--------------------------------------------------------|
A|55-5-55-5-57-5--55555--------------------------------------------------------|
D|-----------------------------------------------------------------------------|

everybody wants to take you home tonight...

Chorus
d|000000000---------------------00000000---------------------------------------|
A|000000000---------------------00000000---------------------------------------|
G|777777777-77777777-9999-77777-77777777-77-77---------------------------------|
D 000000000-55555555-7777-55555-00000000-44-55---------------------------------|
A|----------55555555-7777-55555----------44-55---------------------------------|
D|----------55555555-7777-55555----------44-55---------------------------------|

don't stop, doing what you're doing...

bridge
d 000000000----------------------------------------------------------------------|
A|000000000----------------------------------------------------------------------|
G|777777777-99999999-------------------------------------------------------------|
D|000000000-77777777-99997777-33333333-55555555----------------------------------|
A|----------77777777-99997777-33333333-55555555----------------------------------|
D|----------77777777-99997777-33333333-55555555----------------------------------|

every day it's the same all the games that you play...

            
            
Suggest correction
Creating personal tab
Creating personal tab
You can edit any tab online and save it as your Personal.

You can edit, replace or remove any tab part or add personal notes – all changes will be seen only by you.

Personal tabs can be accessed anytime from any device, even offline.
Learn more »
Give kudos to tab author, rate the tab!
1 2 3 4 5
comments
print report bad tab
guest
Wanna post a correction for this tab? Suggest correction