Oops, an error
Loading. Please wait.

End Up Here Bass Tab

5,330 views 12 this week
no commentswrite comment
1 2 3 4 5
2 more votes to show rating
add to favorites
launch autoscroll
font size
0
reset
guitar tuner
Autoscroll
slow
fast
+/-
esc
set tempo
stop
Help us to improve Ultimate-Guitar.com Take our survey!
×
Author
Difficulty
Tuning
novice
D# G# C# F# A# D#
   Intro
F#|-----------------------------------------------------------------|
C#|-----------------------------------------------------------------|
G#|-----------------------------------------------------------------|
D#|-0-0-0-0-0-0-0-0-7-7-7-7-7-7-7-7-5-5-5-5-5-5-5-5---8-8-8---7-7-7-|
    1 + 2 + 3 + 4 + 1 + 2 + 3 + 4 + 1 + 2 + 3 + 4 + 1 + 2 + 3 + 4 +

F#|-----------------------------------------------------------------|
C#|-----------------------------------------------------------------|
G#|-----------------------------------------------------------------|
D#|-0-0-0-0-0-0-0-0-7-7-7-7-7-7-7-7-5-5-5-5-5-5-5-5-5-5-5-5-8-8-7-7-|
    1 + 2 + 3 + 4 + 1 + 2 + 3 + 4 + 1 + 2 + 3 + 4 + 1 + 2 + 3 + 4 +

   Verse 0:29
F#|-------------------------------------------------------------------|
C#|o-----------------------------------------------------------------o|
G#|o-----------------------------------------------------------------o|
D#|------0-----0---------7-----7---------4-----4---------5-----5------|
     1 + 2 + 3 + 4 + 1 + 2 + 3 + 4 + 1 + 2 + 3 + 4 + 1 + 2 + 3 + 4 +
  
  Chorus 0:43
F#|-------------------------------------------------------------------|
C#|o-----------------------------------------------------------------o|
G#|o-----------------------------------------------------------------o|
D#|--0-0-0-0-0-0-0-0-7-7-7-7-7-7-7-7-9-9-9-9-9-9-9-9-5-5-5-5-5-5-5-5--|
     1 + 2 + 3 + 4 + 1 + 2 + 3 + 4 + 1 + 2 + 3 + 4 + 1 + 2 + 3 + 4 +

F#|-----------------------------------------------------------------|
C#|-----------------------------------------------------------------|
G#|-------7-7-7-9-9---------6-6-7-7---------------------------------|
D#|-9-9-9-----------7-7-7-7---------0-0-0-0-0-0-0-0-5-5-5-5-5-5-5-5-|
    1 + 2 + 3 + 4 + 1 + 2 + 3 + 4 + 1 + 2 + 3 + 4 + 1 + 2 + 3 + 4 +

F#|-----------------------------------------------------------------|
C#|-----------------------------------------------------------------|
G#|---------6-6-7-7---------6-6-7-7---------------------------------|
D#|-7-7-9-9---------5-5-5-5---------7---7---7---7-------------------|
    1 + 2 + 3 + 4 + 1 + 2 + 3 + 4 + 1 + 2 + 3 + 4 + 1 + 2 + 3 + 4 +

  Intro
F#|-----------------------------------------------------------------|
C#|-----------------------------------------------------------------|
G#|-----------------------------------------------------------------|
D#|-0-0-0-0-0-0-0-0-7-7-7-7-7-7-7-7-5-5-5-5-5-5-5-5-8-8-8-8---7-7-7-|
    1 + 2 + 3 + 4 + 1 + 2 + 3 + 4 + 1 + 2 + 3 + 4 + 1 + 2 + 3 + 4 +

Rest

  Verse 1:27
F#|-------------------------------------------------------------------|
C#|o-----------------------------------------------------------------o|
G#|o-----------------------------------------------------------------o|
D#|------0-----0---------7-----7---------4-----4---------5-----5------|
     1 + 2 + 3 + 4 + 1 + 2 + 3 + 4 + 1 + 2 + 3 + 4 + 1 + 2 + 3 + 4 +

  Chorus 1:42
F#|-------------------------------------------------------------------|
C#|o-----------------------------------------------------------------o|
G#|o-----------------------------------------------------------------o|
D#|--0-0-0-0-0-0-0-0-7-7-7-7-7-7-7-7-9-9-9-9-9-9-9-9-5-5-5-5-5-5-5-5--|
     1 + 2 + 3 + 4 + 1 + 2 + 3 + 4 + 1 + 2 + 3 + 4 + 1 + 2 + 3 + 4 +

F#|-----------------------------------------------------------------|
C#|-----------------------------------------------------------------|
G#|-------7-7-7-9-9---------6-6-7-7---------------------------------|
D#|-9-9-9-----------7-7-7-7---------0-0-0-0-0-0-0-0-5-5-5-5-5-5-5-5-|
    1 + 2 + 3 + 4 + 1 + 2 + 3 + 4 + 1 + 2 + 3 + 4 + 1 + 2 + 3 + 4 +

F#|-----------------------------------------------------------------|
C#|-----------------------------------------------------------------|
G#|---------6-6-7-7---------6-6-7-7---------------/-1414141414141414|
D#|-7-7-9-9---------5-5-5-5---------7---7---7---7-------------------|
    1 + 2 + 3 + 4 + 1 + 2 + 3 + 4 + 1 + 2 + 3 + 4 + 1 + 2 + 3 + 4 +

   Bridge
F#|-------------------------------------------------------------------|
C#|o-----------------------------------------------------------------o|
G#|o-----------------------------------------------------------------o|
D#|--9-9-9-9-9-9-9-9-5-5-5-5-5-5-5-5-0-0-0-0-0-0-0-0-7-7-7-7-7-7-7-7--|
     1 + 2 + 3 + 4 + 1 + 2 + 3 + 4 + 1 + 2 + 3 + 4 + 1 + 2 + 3 + 4 +

F#|-----------------|
C#|-----------------|
G#|-1414141414141414|
D#|-----------------|
    1 + 2 + 3 + 4 +

  Chorus 2:23
F#|-----------------------------------------------------------------|
C#|-----------------------------------------------------------------|
G#|-----------------------------------------------------------------|
D#|-0-0-0-0-0-0-0-0-7-7-7-7-7-7-7-7-9-9-9-9-9-9-9-9-----------------|
    1 + 2 + 3 + 4 + 1 + 2 + 3 + 4 + 1 + 2 + 3 + 4 + 1 + 2 + 3 + 4 +

F#|-----------------------------------------------------------------|
C#|-----------------------------------------------------------------|
G#|-----------------------------------------------------------------|
D#|-0-0-0-0-0-0-0-0-7-7-7-7-7-7-7-7-9-9-9-9-9-9-9-9-5-5-5-5-5-5-5-5-|
    1 + 2 + 3 + 4 + 1 + 2 + 3 + 4 + 1 + 2 + 3 + 4 + 1 + 2 + 3 + 4 +

F#|-6-6-6-6-6-6-6-6-------------------------------------------------|
C#|-----------------9-9-9-9-9-9-9-9---------------------------------|
G#|---------------------------------7-7-7-7-7-7-7-7-----------------|
D#|-------------------------------------------------5-5-5-5-5-5-5-5-|
    1 + 2 + 3 + 4 + 1 + 2 + 3 + 4 + 1 + 2 + 3 + 4 + 1 + 2 + 3 + 4 +

F#|-----------------------------------------------------------------|
C#|-----------------------------------------------------------------|
G#|---------6-6-7-7---------6-6-7-7---------------------------------|
D#|-7-7-9-9---------5-5-5-5---------7---7---7---7-------------------|
    1 + 2 + 3 + 4 + 1 + 2 + 3 + 4 + 1 + 2 + 3 + 4 + 1 + 2 + 3 + 4 +

  Outro
F#|-----------------------------------------------------------------|
C#|-----------------------------------------------------------------|
G#|-----------------------------------------------------------------|
D#|-0-0-0-0-0-0-0-0-7-7-7-7-7-7-7-7-5-5-5-5-5-5-5-5-8-8-8-8-8-7-7-7-|
    1 + 2 + 3 + 4 + 1 + 2 + 3 + 4 + 1 + 2 + 3 + 4 + 1 + 2 + 3 + 4 +

F#|-----------------------------------------------------------------|
C#|-----------------------------------------------------------------|
G#|-----------------------------------------------------------------|
D#|-0-0-0-0-0-0-0-0-7-7-7-7-7-7-7-7-5-5-5-5-5-5-5-5---8-8-8---7-7-7-|
    1 + 2 + 3 + 4 + 1 + 2 + 3 + 4 + 1 + 2 + 3 + 4 + 1 + 2 + 3 + 4 +

Tabbed by Jack Mills
Suggest correction
Give kudos to tab author, rate the tab!
1 2 3 4 5
comments
print report bad tab
guest
You may want to rate the tab now too:
select rating
Wanna post a correction for this tab? Suggest correction