Oops, an error
Loading. Please wait.

Fly Away tab

version 1
version 1

Whole song

3,003 views 6 this week
no commentswrite comment
1 2 3 4 5
x 5
add to favorites
×
Save as Personal and add changes to this tab that will be seen only by you. Learn more ›
×
You can save this tab as Personal to edit and correct it or add notes. All changes will be seen only by you. Learn more »
launch autoscroll
font size
0
reset
how to read this tab
guitar tuner
edit
Autoscroll
slow
fast
+/-
esc
set tempo
stop
-----------------------------------------------------------------------------
                 FLY AWAY - 5 Seconds Of Summer
-----------------------------------------------------------------------------
E-mail: a7xlucas@live.com

Tuning: Drop D (DADGBe)

Guitar 1 - Luke Hemmings
Guitar 2 - Michael Clifford

/ or \ - slide to and from a note
* - palm mute
. - release (stop) note from ringing out after playing it
(x.y) - natural harmonics - lay finger on fret x, y is how far across the fret your finger is

Should be 95% accurate, the Chorus is hard to hear exactly what's going on but what I have works. 

If you're confused on how to play any of the parts, check out my guitar cover on YouTube!:
https://www.youtube.com/watch?v=oNK5m0LWEyU

Intro Riff (Guitar 1 only):
e|-----------------------------|
B|-----------------------------|
G|---------------11/12\11~-7~--|
D|-4~-4-5-4----x---------------|
A|----------5--x--9/10\-9~-5~--|
D|-------------x---------------|

Preverse:

Guitar 1 
e|-------------------------------------------------------------------------|
B|-------------------------------------------------------------------------|
G|-11------/12-----9-----/14-----11-----16-----14-----14~------------------|
D|-----x16------x8----x8------x8-----x8-----x8-----x8-----------(feedback)-|
A|-9-------/10-----7-----/12------9-----14-----12-----12~------------------|
D|-------------------------------------------------------------------------|

Guitar 2
e|-------------------------------------------------------------------------|
B|-------------------------------------------------------------------------|
G|-7-------/9------------/11------------12-----14--------------------------|
D|----x16------x16------------x16-----------x8-----x8--(pause)-------------|
A|-5-------/7------------/9-------------10-----12--------------------------|
D|-------------------------------------------------------------------------|

Verse/Prechorus:

Guitar 1
e|--------------------------------------------------------------------------------------------------------|
B|--------------------------------------------------------------------------------------------------------|
G|-----------------------.----------------------------------------------------11~--9~--7~-----------------|
D|-5-----7------(pause)--0--(pause)--5-----7----------------------------------------------(8.3)~-(9.8)~---|
A|-5--x8-7--x8-----------------------5--x8-7--x8--(pause)----------------------9~--7~--5~-----------------|
D|-5-----7---------------------------5-----7--------------------------------------------------------------|

Guitar 2                                       
e|-----------------------------------------------------10~-9~-------10~-9~--------------------------------|
B|----------------------------(8.1)~-------------------------10~-----------8~-----------------------------|
G|-7-----9-----7--------------(8.1)~-7-----9-----7--------------9~-9-----------7~--6~--11~----------------|
D|----x8----x8----x16-(pause)-----------x8----x8----x16------------------------------------------------xx-|
A|-5-----7-----5---------------------5-----7-----5-----------------------------5~--4~--9~--------------xx-|
D|-----------------------------------------------------------------------------------------------------xx-|

Chorus:

Guitar 1
e|-----------------------------------------------|-------------------------------1.-|--------2.-||
B|-----------------------------------------------|----------------------------------|-----------||
G|-7------------------------------------4~-4~-2~-|-------------(7.9)(7.9)(7.9)(7.9)-|-(7.9)--x8-||
D|-7--x8-0-----5-----0-----5-----0------4~-4~-2~-|-(7.9)(7.9)~----------------------|-----------||
A|-5-----0--x8-5--x8-0--x8-5--x8-0---x8-2~-2~-0~-|----------------------------------|-----------||
D|-------0-----5-----0-----5-----0---------------|----------------------------------|-----------||

Guitar 2, 2x
e|-------------------------------------------------------------------------------------------------|
B|-7~----7~--------8~p7~--------------------------7~----7~--------8~p7~----------------------------|
G|----7~----7~---7-------7~-11-----x-14~14~14~14~----7~----7~---7-------7~--4~-4~-2~~~~~--(pause)--|
D|------------------------------x8-x----------------------------------------4~-4~-2~~~~~-----------|
A|---------------------------9-----x-12~12~12~12~---------------------------2~-2~-0~~~~~-----------|
D|-------------------------------------------------------------------------------------------------|

Repeat:
Intro 1x - for Guitar 1, skip last note

Verse 2:

Guitar 1
e|-----|-----|------------------------------|-----|-----|-------------------------------------------------|
B|-7---|-10--|-xx-(8.1)~--------------------|-7---|-10--|-(8.1)~------------------------------------------|
G|---7-|---7-|-xx-(8.1)~--------------------|---7-|---7-|-(8.1)~-----------11~11/12\11~-7~---11/12\11~-7~-|
D|-----|-----|-xx-------5-----7-------------|-----|-----|-------5-----7--------------------xx-------------|
A|-----|-----|----------5--x8-7--x8-(pause)-|-----|-----|-------5--x8-7--x8-9~-9/10\-9~-5~-xx-9/10\-9~-5~-|
D|--8x-|--6x-|----------5-----7-------------|--8x-|--7x-|-------5-----7--------------------xx-------------|
   * *   * *                                  * *   * *
Guitar 2                                       
e|------------------------------------------------------------------------------------|
B|------------------------------------------------------------------------------------|
G|--(silence)-----------7-----9-----7---------------------------7-----9-----7---------|
D|-------------------------x8----x8----x16-(pause)-----------------x8----x8----x16----|
A|----------------------5-----7-----5---------------------------5-----7-----5---------|
D|------------------------------------------------------------------------------------|

Prechorus 2:

Guitar 1
e|-------------------------------------------------------------|
B|-------------------------------------------------------------|
G|------------------------------11~--9~--7~--------------------|
D|--------------------------------------------(8.3)~-(9.8)~----|
A|-------------------------------9~--7~--5~--------------------|
D|-------------------------------------------------------------|

Guitar 2                                       
e|-10~-9~--------10~-9~----------------------------------------|
B|-------10~------------8~-------------------------------------|
G|-----------9~-9----------------7~--6~--11~-------------------|
D|----------------------------------------------------------xx-|
A|-------------------------------5~--4~--9~-----------------xx-|
D|----------------------------------------------------------xx-|

Bridge:

Guitar 1
e|--------------------------------------------|-----------------------1.-|------0~~~~-----5~~~~-2.-||
B|-777-777-777-777-77-1010-777-777-777-777----|--------------------------|-----------7~~~~~~~~~----||
G|-777-999-777-999-77-7-7--777-999-777-999-66-|-7~~~~~~~~~~~~~~~~~~~~~~~-|-7~~~~~~~~~~~~~~~~~~~----||
D|--------------------------------------------|--------------------------|-------------------------||
A|--------------------------------------------|--------------------------|-------------------------||
D|--------------------------------------------|--------------------------|-------------------------||

Guitar 2
e|--------------------------------------------|-----------------------1.-|----------------------2.-||
B|--------------------------------------------|--------------------------|-------------------------||
G|-2~--2~--2~--2~--2~~~~~--2~--2~--2~--2~~~~--|--------------------------|-------------------------||
D|-0~--0~--0~--0~--0~~~~~--0~--0~--0~--0~~~~--|-5-----7-----9-----11-----|-5-----7-----9-----11----||
A|-0~--0~--0~--0~--0~~~~~--0~--0~--0~--0~~~~--|-5--x8-7--x8-9--x8-12--x8-|-5--x8-7--x8-9--x8-12--x8||
D|-0~--0~--0~--0~--0~~~~~--0~--0~--0~--0~~~~--|-5-----7-----9-----11-----|-5-----7-----9-----11----||
                                                *     *     *     *        *     *     *     * 
Break (Calum solo, clean guitar):                                        Grad. lift Palm Mute^

Guitar 2 (no Guitar 1)                                         Back to distortion V
e|-----------------------------------------------------------------------------------|
B|-----------------------------------------------------------------------------------|
G|-----------------------------------------------------------------------------------|
D|----7~----7~----7~----7~----7~----7~----7~----7~--------------------------------xx-|
A|-00----00----00----00----00----00----00----00--------------0~-------------------xx-|
D|-------------------------------------------------5~---7~---0~-------------------xx-|

Repeat:
Chorus

Outro:
Guitar 1                       Skip this mute the 1st and 3rd times V
e|----------------------------------------------------|------------------------------3x-|---------------|
B|----------------------------------------------------|---------------------------------|---------------|
G|-11------/12-----9-----/14-----11-----16-----14-----|---------------11~-11/12\11~-7~--|-11~--9~--7~---|
D|-----x16------x8----x8------x8-----x8-----x8-----x8-|-4~-4-5-4----x-------------------|---------------|
A|-9-------/10-----7-----/12------9-----14-----12-----|----------5--x--9~--9/10\-9~-5~--|-9~---7~--5~---|
D|----------------------------------------------------|-------------x-------------------|---------------|

Guitar 2
e|----------------------------------------------------|---------------------------------|---------------|
B|----------------------------------------------------|---------------------------------|---------------|
G|-7-------/9------------/11------------12-----14-----|-7-------------------------------|---------2~----|
D|----x16------x16------------x16-----------x8-----x8-|-0-------------------------------|-5~--7~--0~----|
A|-5-------/7------------/9-------------10-----12-----|-0--x24--------------------------|-5~--7~--0~----|
D|----------------------------------------------------|-0-------------------------------|-5~--7~--0~----|

            
            
Suggest correction
Creating personal tab
Creating personal tab
You can edit any tab online and save it as your Personal.

You can edit, replace or remove any tab part or add personal notes – all changes will be seen only by you.

Personal tabs can be accessed anytime from any device, even offline.
Learn more »
comments
print report bad tab
guest
You may want to rate the tab now too:
select rating
Wanna post a correction for this tab? Suggest correction