Oops, an error
Loading. Please wait.

Girls Talk Boys bass

version 1
version 1

Whole song

  • This tab includes standard tuning and a more accur... Show more
  • This tab is formatted correctly, notated correctly... Show more
8,605 views 69 this week
2 commentsread comments
1 2 3 4 5
x 12
add to favorites
×
Save as Personal and add changes to this tab that will be seen only by you. Learn more ›
×
You can save this tab as Personal to edit and correct it or add notes. All changes will be seen only by you. Learn more »
launch autoscroll
font size
0
reset
guitar tuner
edit
Autoscroll
slow
fast
+/-
esc
set tempo
stop
[Intro]

G|---------------------------------------------------------------------------|
D|---------------------------------------------------------------------------|
A|-----------------7-------------5-7-7-------------7-------------5-7-7-------|
D|-5---4---3 / 9-------------------------------------------------------------|
   1 + 2 + 3 + 4 + 1 + 2 + 3 + 4 + 1 + 2 + 3 + 4 + 1 + 2 + 3 + 4 + 1 + 2 + 3

G|---------------------------------------------------------------------------|
D|---------------------------------------------------------------------------|
A|---------------------------------------------------------------------------|
D|-------7-------------5-7-7-------------7-------------5-5---4---3 / 9-------|
   + 4 + 1 + 2 + 3 + 4 + 1 + 2 + 3 + 4 + 1 + 2 + 3 + 4 + 1 + 2 + 3 + 4

[Chorus]

G|---------------------------------------------------------------------------|
D|---------------------------------------------------------------------------|
A|-7-------------5-7-7-------------7-------------5-7-7-----------------------|
D|-----------------------------------------------------------------7---------|
   1 + 2 + 3 + 4 + 1 + 2 + 3 + 4 + 1 + 2 + 3 + 4 + 1 + 2 + 3 + 4 + 1 + 2 + 3

G|---------------------------------------------------------------------------|
D|---------------------------------------------------------------------------|
A|---------------------------------------------------------------------------|
D|-----5-7-7-------------7-------------5-5---4---3 / 9-----------------------|
   + 4 + 1 + 2 + 3 + 4 + 1 + 2 + 3 + 4 + 1 + 2 + 3 + 4 


[Verse]

G|---------------------------------------------------------------------------|
D|--------------------------------------------------------/9-7-5-9-----------|
A|-7-------------5-7-7-------------7-------------5-7-7-----------------------|
D|-----------------------------------------------------------------7---------|
   1 + 2 + 3 + 4 + 1 + 2 + 3 + 4 + 1 + 2 + 3 + 4 + 1 + 2 + 3 + 4 + 1 + 2 + 3

G|---------------------------------------------------------------------------|
D|---------------------------------------------------------------------------|
A|-------------------------------------------------------7-------------5-7-7-|
D|-----5-7-7-------------7-------------5-------------------------------------|
   + 4 + 1 + 2 + 3 + 4 + 1 + 2 + 3 + 4 + 1 + 2 + 3 + 4 + 1 + 2 + 3 + 4 + 1 +

G|---------------------------------------------------------------------------|
D|---------------------------------------------------------------------------|
A|-------------7-------------5-7-7-------------------------------------------|
D|---------------------------------------------7-------------5-7-7-----------|
   2 + 3 + 4 + 1 + 2 + 3 + 4 + 1 + 2 + 3 + 4 + 1 + 2 + 3 + 4 + 1 + 2 + 3 + 4

G|---------------------------------------------------------------------------|
D|---------------------------------------------------------------------------|
A|---------------------------------------------------------------------------|
D|---7-------------5-5-4-3 / 9-----------------------------------------------|
   + 1 + 2 + 3 + 4 + 1 + 2 + 3 + 4

[Bridge]

There's 8 bars with no bass, and then:

G|---------------------------------------------------------------------------|
D|---------------------------------------------------------------------------|
A|-3---3---3---3-------------------3---3---3---3-------------------3---3---3-|
D|-----------------5---5---4---4-------------------5---5---4---4-------------|
   1 + 2 + 3 + 4 + 1 + 2 + 3 + 4 + 1 + 2 + 3 + 4 + 1 + 2 + 3 + 4 + 1 + 2 + 3

G|---------------------------------------------------------------------------|
D|---------------------------------------------------------------------------|
A|---3-----------------------------------------------------------------------|
D|-------5---5---4---4-------------------5---4---3 / 9-----------------------|
   + 4 + 1 + 2 + 3 + 4 + 1 + 2 + 3 + 4 + 1 + 2 + 3 + 4 

[Chorus]

G|---------------------------------------------------------------------------|
D|---------------------------------------------------------------------------|
A|-7-------------5-7-7-------------7-------------5-7-7-----------------------|
D|-----------------------------------------------------------------7---------|
   1 + 2 + 3 + 4 + 1 + 2 + 3 + 4 + 1 + 2 + 3 + 4 + 1 + 2 + 3 + 4 + 1 + 2 + 3

G|---------------------------------------------------------------------------|
D|---------------------------------------------------------------------------|
A|---------------------------------------------------------------------------|
D|-----5-7-7-------------7-------------5-5---4---3 / 9-----------------------|
   + 4 + 1 + 2 + 3 + 4 + 1 + 2 + 3 + 4 + 1 + 2 + 3 + 4 

[Verse]

G|---------------------------------------------------------------------------|
D|--------------------------------------------------------/9-7-5-9-----------|
A|-7-------------5-7-7-------------7-------------5-7-7-----------------------|
D|-----------------------------------------------------------------7---------|
   1 + 2 + 3 + 4 + 1 + 2 + 3 + 4 + 1 + 2 + 3 + 4 + 1 + 2 + 3 + 4 + 1 + 2 + 3

G|---------------------------------------------------------------------------|
D|---------------------------------------------------------------------------|
A|-------------------------------------------------------7-------------5-7-7-|
D|-----5-7-7-------------7-------------5-------------------------------------|
   + 4 + 1 + 2 + 3 + 4 + 1 + 2 + 3 + 4 + 1 + 2 + 3 + 4 + 1 + 2 + 3 + 4 + 1 +

G|---------------------------------------------------------------------------|
D|---------------------------------------------------------------------------|
A|-------------7-------------5-7-7-------------------------------------------|
D|---------------------------------------------7-------------5-7-7-----------|
   2 + 3 + 4 + 1 + 2 + 3 + 4 + 1 + 2 + 3 + 4 + 1 + 2 + 3 + 4 + 1 + 2 + 3 + 4

G|---------------------------------------------------------------------------|
D|---------------------------------------------------------------------------|
A|---------------------------------------------------------------------------|
D|---7-------------5-5-4-3 / 9-----------------------------------------------|
   + 1 + 2 + 3 + 4 + 1 + 2 + 3 + 4


[Bridge]

8 bars with no bass, and then:

G|---------------------------------------------------------------------------|
D|---------------------------------------------------------------------------|
A|-3---3---3---3-------------------3---3---3---3-------------------3---3---3-|
D|-----------------5---5---4---4-------------------5---5---4---4-------------|
   1 + 2 + 3 + 4 + 1 + 2 + 3 + 4 + 1 + 2 + 3 + 4 + 1 + 2 + 3 + 4 + 1 + 2 + 3

G|---------------------------------------------------------------------------|
D|---------------------------------------------------------------------------|
A|---3-----------------------------------------------------------------------|
D|-------5---5---4---4-------------------5---4---3 / 9-----------------------|
   + 4 + 1 + 2 + 3 + 4 + 1 + 2 + 3 + 4 + 1 + 2 + 3 + 4 

[Chorus]

G|---------------------------------------------------------------------------|
D|---------------------------------------------------------------------------|
A|-7-------------5-7-7-------------7-------------5-7-7-----------------------|
D|-----------------------------------------------------------------7---------|
   1 + 2 + 3 + 4 + 1 + 2 + 3 + 4 + 1 + 2 + 3 + 4 + 1 + 2 + 3 + 4 + 1 + 2 + 3

G|---------------------------------------------------------------------------|
D|---------------------------------------------------------------------------|
A|---------------------------------------------------------------------------|
D|-----5-7-7-------------7-------------5-5---4---3 / 9-----------------------|
   + 4 + 1 + 2 + 3 + 4 + 1 + 2 + 3 + 4 + 1 + 2 + 3 + 4 

[Outro]

G|---------------------------------------------------------------------------|
D|---------------------------------------------------------------------------|
A|-----------------7-------------5-7-7-------------7-------------5-7-7-------|
D|-5---4---3 / 9-------------------------------------------------------------|
   1 + 2 + 3 + 4 + 1 + 2 + 3 + 4 + 1 + 2 + 3 + 4 + 1 + 2 + 3 + 4 + 1 + 2 + 3

G|---------------------------------------------------------------------------|
D|---------------------------------------------------------------------------|
A|---------------------------------------------------------------------------|
D|-------7-------------5-7-7-------------7-------------5-5---4---3 / 9-------|
   + 4 + 1 + 2 + 3 + 4 + 1 + 2 + 3 + 4 + 1 + 2 + 3 + 4 + 1 + 2 + 3 + 4

************************************

| x   Dead note
| g   Grace note
| (n) Ghost note
| h   Hammer-on
| p   Pull-off
| r   Release
| >   Accented note
| t   Tapping
| b   Bend
| br  Bend release
| pb  Pre-bend
| pbr Pre-bend release
| /   Slide up
| \   Slide down
| ~   Vibrato
| s   Slap
| P   Pop
| PM  Palm mute
| TR  Trill
| N   Tremolo

************************************

            
            
Suggest correction
Creating personal tab
Creating personal tab
You can edit any tab online and save it as your Personal.

You can edit, replace or remove any tab part or add personal notes – all changes will be seen only by you.

Personal tabs can be accessed anytime from any device, even offline.
Learn more »
comments
print report bad tab
2 comments total.
0 reply
Vorpike 113 Aug 09, 2016 08:15 PM, edited on August 10 2016, 12:19 am

hella accurate, just pretty sure there's no extra low g on on the + of 4 in some parts
and may i ask why you chose to drop d? low d isn't even used

guest
You may want to rate the tab now too:
select rating
Wanna post a correction for this tab? Suggest correction