Oops, an error
Loading. Please wait.

Girls Talk Boys tab

version 2
version 2

Whole song

868 views 3 this week
no commentswrite comment
1 2 3 4 5
1 last vote to show rating
add to favorites
×
Save as Personal and add changes to this tab that will be seen only by you. Learn more ›
×
You can save this tab as Personal to edit and correct it or add notes. All changes will be seen only by you. Learn more »
launch autoscroll
font size
0
reset
how to read this tab
guitar tuner
edit
Autoscroll
slow
fast
+/-
esc
set tempo
stop
Author
Difficulty
Check out my guitar cover on YouTube: https://www.youtube.com/watch?v=tAzXboCeEVE

Guitar 1 - Luke Hemmings
Guitar 2 - Michael Clifford
                                     Note: Bass plays the 0's, playing them on guitar is optional 
[Verse]

(Guitar 2 only):
e|-------------|----7---5~-7----7---5~-7-|----8----7~-8----8----7~-8-----8----7~-8------------2x-|
B|-------------|----8---7~-8----8---7~-8-|----10---8~-10---10---8~-10----10---8~-10--------------|
G|-------------|----9---7~-9----9---7~-9-|----9----7~-9----9----7~-9-----9----7~-9---------------|
D|-------------|-------------------------|-------------------------------------------------------|
A|----------2~-|-------------------------|-0~-------------------------0~------------&---------2~-|
E|-3~-2~-1~----|-0~-------------------2x-|-------------------------------------------3~-2~-1~----|

Prechorus (Guitar 2 only):
e|----7---5~-7----7---5~-7-|-xxxx-8----7~-8----8----7~-8-----8----7~-8--------------|
B|----8---7~-8----8---7~-8-|-xxxx-10---8~-10---10---8~-10----10---8~-10-------------|
G|----9---7~-9----9---7~-9-|-xxxx-9----7~-9----9----7~-9-----9----7~-9--------------|
D|-------------------------|--------------------------------------------------------|
A|-------------------------|------------------------------0~-----------&---------2~-|
E|-0~-------------------2x-|--------------------------------------------3~-2~-1~----|
                                           On second time stop at the &^

[Chorus]

Guitar 1 (piano chords transcribed to guitar, guitar 2 silent)
e|---------3~------3x-|---------3~--------|---------3~------3x-|--------|
B|-1~------3~---3~----|-1~------3~---3~---|-1~------3~---3~----|-1~-----|
G|-0~------0~---2~----|-2~------0~---2~---|-0~------0~---2~----|-2~-----|
D|-2~------0~---0~----|-2~------0~---0~---|-2~------0~---0~----|-2~-----|
A|-3~------2~---0~----|-0~------2~---0~---|-3~------2~---0~----|-0~-----|
E|---------3~---2~----|---------3~---2~---|---------3~---2~----|--------|

Guitar 2  1:26 V
e|-----------|-----------------|-------------|
B|-----------|-----8-----------|-------------| Guitar 2 plays the top notes,
G|-(silence)-|-7-9---9-----12x-|--(silence)--| harmony guitar plays the low notes
D|-----------|-5-7-9-7---------|-------------|
A|-----------|-----------------|-------------|
E|-----------|-----------------|-------------|
               * * * *

[Verse 2] 

(Guitar 2 only):
e|-------------|----7---5~-7----7---5~-7-xxxxxx-|----8----7~-8----8----7~-8-----8----7~-8------------2x-|
B|-------------|----8---7~-8----8---7~-8-xxxxxx-|----10---8~-10---10---8~-10----10---8~-10--------------|
G|-------------|----9---7~-9----9---7~-9-xxxxxx-|----9----7~-9----9----7~-9-----9----7~-9---------------|
D|-------------|--------------------------------|-------------------------------------------------------|
A|----------2~-|--------------------------------|-0~-------------------------0~------------&---------2~-|
E|-3~-2~-1~----|-0~-------------------2x--------|-------------------------------------------3~-2~-1~----|
                                                               On second time stop at the &^

[Pre-chorus 2] 

(Guitar 2 only):
e|----7---5~-7----7---5~-7-|----8----7~-8----8----7~-8-----8----7~-8--------------|
B|----8---7~-8----8---7~-8-|----10---8~-10---10---8~-10----10---8~-10-------------|
G|----9---7~-9----9---7~-9-|----9----7~-9----9----7~-9-----9----7~-9--------------|
D|-------------------------|------------------------------------------------------|
A|-------------------------|-0~-------------------------0~---------------------2~-|
E|-0~-------------------2x-|------------------------------------------3~-2~-1~----|


[Chorus]

Guitar 1 (piano chords transcribed to guitar, guitar 2 silent)
e|---------3~------3x-|---------3~--------|---------3~------3x-|--------|
B|-1~------3~---3~----|-1~------3~---3~---|-1~------3~---3~----|-1~-----|
G|-0~------0~---2~----|-2~------0~---2~---|-0~------0~---2~----|-2~-----|
D|-2~------0~---0~----|-2~------0~---0~---|-2~------0~---0~----|-2~-----|
A|-3~------2~---0~----|-0~------2~---0~---|-3~------2~---0~----|-0~-----|
E|---------3~---2~----|---------3~---2~---|---------3~---2~----|--------|

Guitar 2  1:26 V
e|-----------|-----------------|-------------|
B|-----------|-----8-----------|-------------| Guitar 2 plays the top notes,
G|-(silence)-|-7-9---9-----12x-|--(silence)--| harmony guitar plays the low notes
D|-----------|-5-7-9-7---------|-------------|
A|-----------|-----------------|-------------|
E|-----------|-----------------|-------------|


[Verse 3] 

(Guitar 2 only):
e|-------------|----7---5~-7----7---5~-7-|----8----7~-8----8----7~-8-----8----7~-8---------------|
B|-------------|----8---7~-8----8---7~-8-|----10---8~-10---10---8~-10----10---8~-10--------------|
G|-------------|----9---7~-9----9---7~-9-|----9----7~-9----9----7~-9-----9----7~-9---------------|
D|-------------|-------------------------|-------------------------------------------------------|
A|----------2~-|-------------------------|-0~-------------------------0~----------------------2~-|
E|-3~-2~-1~----|-0~-------------------2x-|-------------------------------------------3~-2~-1~----|


[Outro] 

("Talk, talk talk..." part, Guitar 2 only):
e|----7---5~-7----7---5~-7-|----8----7~-8----8----7~-8-----8----7~-8---------------2x-|
B|----8---7~-8----8---7~-8-|----10---8~-10---10---8~-10----10---8~-10-----------------|
G|----9---7~-9----9---7~-9-|----9----7~-9----9----7~-9-----9----7~-9------------------|
D|-------------------------|----------------------------------------------------------|
A|-------------------------|-0~-------------------------0~------------&---------2~----|
E|-0~-------------------2x-|-------------------------------------------3~-2~-1~----0~-|
 


************************************

| x  Dead note
| ~  Vibrato
| * = palm mute

************************************
Suggest correction
Creating personal tab
Creating personal tab
You can edit any tab online and save it as your Personal.

You can edit, replace or remove any tab part or add personal notes – all changes will be seen only by you.

Personal tabs can be accessed anytime from any device, even offline.
Learn more »
Give kudos to tab author, rate the tab!
1 2 3 4 5
comments
print report bad tab
guest
You may want to rate the tab now too:
select rating
Wanna post a correction for this tab? Suggest correction