Oops, an error
Loading. Please wait.

Good Girls Bass Tab

version 1
version 1

Whole song

Interactive

14,712 views 78 this week
1 commentread comment
1 2 3 4 5
excellent!
x 6
add to favorites
launch autoscroll
font size
0
reset
guitar tuner
Autoscroll
slow
fast
+/-
esc
set tempo
stop
Help us to improve Ultimate-Guitar.com Take our survey!
×
Contributor
Difficulty
JackMills 5,793
intermediate
 Intro
G|-----------------------------------------------------------------|
D|-----------------------------------------------------------------|
A|---------------------------------------------------------5-5-5-\-|
E|-----------------------------------------------------------------|
   1 + 2 + 3 + 4 + 1 + 2 + 3 + 4 + 1 + 2 + 3 + 4 + 1 + 2 + 3 + 4 +

  Verse
G|-------------------------------------------------------------------|
D|o-----------------------------------------------------------------o|
A|o-------------------------------------------------------------5---o|
E|-------------------------------------------------------------------|x2
    1 + 2 + 3 + 4 + 1 + 2 + 3 + 4 + 1 + 2 + 3 + 4 + 1 + 2 + 3 + 4 +

G|-----------------------------------------------------------------|
D|-----------------------------------------------------------------|
A|-7-----------7-------------------4-----------4---------------5---|
E|-----------------7-----------7-------------------5-----5-5-------|
   1 + 2 + 3 + 4 + 1 + 2 + 3 + 4 + 1 + 2 + 3 + 4 + 1 + 2 + 3 + 4 +

G|-----------------------------------------------------------------|
D|-----------------------------------------------------------------|
A|-7-----------7-------------------4-----------4-------------------|
E|-----------------7-----------7-------------------5---------------|
   1 + 2 + 3 + 4 + 1 + 2 + 3 + 4 + 1 + 2 + 3 + 4 + 1 + 2 + 3 + 4 +

  Chorus
G|-------------------------------------------------------------------|
D|o-----------------------------------------------------------------o|
A|o-----------------------------------------------------------------o|
E|--0--0--0-0-----0-7--7--7-7-----7-4--4--4-4-----4-5--5--5-5-\------|x2
    Triplet 3 + 4 + Triplet 3 + 4 + Triplet 3 + 4 + Triplet 3 + 4 +

  Post-Chorus (Skip If You're Playing the Music Video/Single Version)
G|-------------------------------------------------------------------|
D|o-----------------------------------------------------------------o|
A|o-----------------------------------------------------------------o|
E|--0-----0-0-------7-7---7-\-------4-----4-4-------5-5---5-\--------|x2
    1 + 2 + 3 + 4 + 1 + 2 + 3 + 4 + 1 + 2 + 3 + 4 + 1 + 2 + 3 + 4 +

  Verse
G|-----------------------------------------------------------------|
D|-----------------------------------------------------------------|
A|-7-7-7-7-7---------------9-7-6-7-----------------------------5---|
E|-----------5-4-7-7-7-7-7---------9-9-9-9-5-4-2-5-5-5-5-5-5-5-----|
   1 + 2 + 3 + 4 + 1 + 2 + 3 + 4 + 1 + 2 + 3 + 4 + 1 + 2 + 3 + 4 +

G|-----------------------------------------------------------------|
D|-----------------------------------------------------------------|
A|-7-7-7-7-7---------------9-7-6-7-----------------------------5---|
E|-----------5-4-7-7-7-7-7---------9-9-9-9-5-4-2-5-\---------------|
   1 + 2 + 3 + 4 + 1 + 2 + 3 + 4 + 1 + 2 + 3 + 4 + 1 + 2 + 3 + 4 +

G|-----------------------------------------------------------------|
D|-----------------------------------------------------------------|
A|-7-7-7-7-7-7-7-7-----------------4-4-4-4-4-4-4-4-5-5-5-5-5-5-5-5-|
E|-----------------7-7-7-7-7-7-7-7---------------------------------|
   1 + 2 + 3 + 4 + 1 + 2 + 3 + 4 + 1 + 2 + 3 + 4 + 1 + 2 + 3 + 4 +

G|-----------------------------------------------------------------|
D|-----------------------------------------------------------------|
A|-7-7-7-7-7-7-7-7-----------------4-4-4-4-4-4-4-------------------|
E|-----------------7-7-7-7-7-7-7-7-----------------5-\-------/-12\-|
   1 + 2 + 3 + 4 + 1 + 2 + 3 + 4 + 1 + 2 + 3 + 4 + 1 + 2 + 3 + 4 +

  Chorus
G|-------------------------------------------------------------------|
D|o-----------------------------------------------------------------o|
A|o-----------------------------------------------------------------o|
E|--0--0--0-0-----0-7--7--7-7-----7-4--4--4-4-----4-5--5--5-5-\------|x2
    Triplet 3 + 4 + Triplet 3 + 4 + Triplet 3 + 4 + Triplet 3 + 4 +

  Bridge
G|-----------------------------------------------------------------|
D|-----------------------------------------------------------------|
A|-----------------------------5-\-7-----7-------4---4---4---------|
E|-----------------------------------------7---------------5---7---|
   1 + 2 + 3 + 4 + 1 + 2 + 3 + 4 + 1 + 2 + 3 + 4 + 1 + 2 + 3 + 4 +

G|-----------------------------------------------------------------|
D|-----------------------------------------------------------------|
A|-7-----7-------4---4---4---------7-----7-------4---4---4---------|
E|---------7---------------5---7-----------7---------------5---7---|
   1 + 2 + 3 + 4 + 1 + 2 + 3 + 4 + 1 + 2 + 3 + 4 + 1 + 2 + 3 + 4 +

  Pre-Chorus
G|-----------------------------------------------------------------|
D|-----------------------------------------------------------------|
A|-7-------------------------------7-------------------------------|
E|---------7-------9-------5---------------7-------9-------5-------|
   1 + 2 + 3 + 4 + 1 + 2 + 3 + 4 + 1 + 2 + 3 + 4 + 1 + 2 + 3 + 4 +

G|-----------------------------------------------------------------|
D|-------------------------------------------------6-6-6-6-7-7-7-7-|
A|-7-7-7-7-6-6-6-6-4-4-4-4-2-2-2-2-7-7-7-7-9-9-9-9-----------------|
E|-----------------------------------------------------------------|
   1 + 2 + 3 + 4 + 1 + 2 + 3 + 4 + 1 + 2 + 3 + 4 + 1 + 2 + 3 + 4 +

  Chorus
G|-----------------------------------------------------------------|
D|-----------------------------------------------------------------|
A|-----------------------------------------------------------------|
E|---------------------------------------------------------8-8-7---|
   1 + 2 + 3 + 4 + 1 + 2 + 3 + 4 + 1 + 2 + 3 + 4 + 1 + 2 + 3 + 4 +

G|-----------------------------------------------------------------|
D|-----------------------------------------------------------------|
A|-----------------------------------------------------------------|
E|-0--0--0-0-----0-7--7--7-7-----7-4--4--4-4-----4-5--5--5-5-\-----|
   Triplet 3 + 4 + Triplet 3 + 4 + Triplet 3 + 4 + Triplet 3 + 4 +

G|-------------------------------------------------------------------|
D|o-----------------------------------------------------------------o|
A|o-----------------------------------------------------------------o|
E|--0-0-0-0-0-0-0-0-7-7-7-7-7-7-7-7-4-4-4-4-4-4-4-4-5-5-5-5-5-5-5-5--|x4
    1 + 2 + 3 + 4 + 1 + 2 + 3 + 4 + 1 + 2 + 3 + 4 + 1 + 2 + 3 + 4 +

  Outro
G|-------------------------------------------------------------------|
D|o-----------------------------------------------------------------o|
A|o-----------------------------------------------------------------o|
E|--0-----0-0-------7-7---7-\-------4-----4-4-------5-5---5-\--------|x2
    1 + 2 + 3 + 4 + 1 + 2 + 3 + 4 + 1 + 2 + 3 + 4 + 1 + 2 + 3 + 4 +

G|-----------------------------------------------------------------|
D|-----------------------------------------------------------------|
A|-----------------------------------------------------------------|
E|-0---------------------------------------------------------------|
   1 + 2 + 3 + 4 + 1 + 2 + 3 + 4 + 1 + 2 + 3 + 4 + 1 + 2 + 3 + 4 +

Tabbed By Jack Mills
comments
print report bad tab
1 comment total.
+2 reply
freak910 17 wrote on February 11 2015, 07:31 am

Hi, I covered this song after this Tab, if you wanna watch : )

https://www.youtube.com/watch?v=Z4a0KbWwqyU

I want to post or [tab]
guest
You may want to rate the tab now too:
select rating
Please do not post tabs as comments. Select "correction" instead!