Oops, an error
Loading. Please wait.

Good Girls Tab

version 1
version 1

Whole song

Interactive

Video

15,456 views 27 this week
2 commentsread comments
1 2 3 4 5
accurate
x 5
add to favorites
launch autoscroll
font size
0
reset
how to read this tab
guitar tuner
Autoscroll
slow
fast
+/-
esc
set tempo
stop
Help us to improve Ultimate-Guitar.com Take our survey!
×
Author
Difficulty
intermediate
Basically what Michael plays throughout
no capo needed

[Intro]

du du du, du du du du du du du
e---------------------------------------------|
B---------------------------------------------|
G---9----9-----9-----9-----9----9-----9---999-|
D--9-9--9-9---9-9---9-9---9-9--9-9---9-9--999-|
A-7----------------0-----7----------------000-|
E------7-----9----------------7-----9---------|


[Verse 1]

She's a good girl, she's daddy's favourite...
e-----------------------------------------|
B-----------------------------------------|
G---9----9----9----9----9----9----9----9--|
D--9-9--9-9--9-9--9-9--9-9--9-9--9-9--9-9-|
A-7----7------------------------0----0----|
E-----------7----7----9----9--------------| x4


[Chorus]

She said to me, forget what you thought...
e------2222-----------|
B------0000-2222-2222-|
G-1111-0000-1111-2222-|
D-2222-1111-2222-2222-|
A-2222-2222-----------|
E---------------------| x2

woah oh oh oh oh- oh woah oh...
e----2222----------|
B----0000-22-2222--|
G-11-0000-11-2222--|
D-22-1111-22-2222--|
A-22-2222----------|
E------------------| x2


[Verse 2]

She's a good girl, A straight A student...
e-----------------------------------------|
B-----------------------------------------|
G---9----9----9----9----9----9----9----9--|
D--9-9--9-9--9-9--9-9--9-9--9-9--9-9--9-9-|
A-7----7------------------------0----0----|
E-----------7----7----9----9--------------| x4


[Chorus]

She said to me, forget what you thought...
e------2222-----------|
B------0000-2222-2222-|
G-1111-0000-1111-2222-|
D-2222-1111-2222-2222-|
A-2222-2222-----------|
E---------------------| x2

du du du, du du du du du du du...
e----22-------|
B----00-22-22-|
G-11-00-11-22-|
D-22-11-22-22-|
A-22-22-------|
E-------------|

du du du, du du du du du du du...
e----22-------|
B----00-22-22-|
G-11-00-11-22-|
D-22-11-22-22-|
A-22-22-------|
E-------------|


[ASHTON'S SOLO]
she's a good girl, hasn't been caught...
e---------------------------------------------|
B---------------------------------------------|
G---9----9-----9-----9-----9----9-----9----9--|
D--9-9--9-9---9-9---9-9---9-9--9-9---9-9--9-9-|
A-7----------------0-----7---------------0----|
E------7-----9----------------7-----9---------| x2

~Drum solo~

CHORUS/OUTRO
So just turn around around and forget what you saw...
e------2222-----------|
B------0000-2222-2222-|
G-1111-0000-1111-2222-|
D-2222-1111-2222-2222-|
A-2222-2222-----------|
E---------------------| x5

woah oh oh oh oh- oh woah oh...
e----2222----------|
B----0000-22-2222--|
G-11-0000-11-2222--|
D-22-1111-22-2222--|
A-22-2222----------|
E------------------| x6

Hope you enjoy!
~not copied, taught myself by ear~
Suggest correction
comments
print report bad tab
2 comments total.
0 reply
LProcks98 10 wrote on October 31 2014, 05:45 am

I don't know what it should be but there is a problem with the chords in the chorus, apart from the first one, they don't sound right...

0 reply
tremayne-04 10 wrote on December 20 2014, 10:17 pm

Lack of accuracy. the 2nd, 3rd and 4th chords of the chorus definately sounded wrong to me and it would have been easier read if the tab had allined with the words

guest
You may want to rate the tab now too:
select rating
Wanna post a correction for this tab? Suggest correction