Oops, an error
Loading. Please wait.

Good Girls bass

version 2
version 2

Whole song

  • This is a simplified version of what the bass soun... Show more

Interactive

514 views 1 this week
1 commentread comment
1 2 3 4 5
x 3
add to favorites
×
Save as Personal and add changes to this tab that will be seen only by you. Learn more ›
×
You can save this tab as Personal to edit and correct it or add notes. All changes will be seen only by you. Learn more »
launch autoscroll
font size
0
reset
guitar tuner
edit
Autoscroll
slow
fast
+/-
esc
set tempo
stop
About this tab version
This is a simplified version of what the bass sounds like, which is easier for beginners. Was this info helpful? Yes No
I play this bass tab using a plectrum, but you don't have to, if you don't want to.
I used the offical 'Good Girls' music video for the timing.
https://www.youtube.com/watch?v=0FfG_5JBVBQ

[Intro]

1:07

G|-------|
D|-------|
A|-7-7-7-|
E|-------|

[Verse]

1:08

G|-----------------------------------------------------------------|
D|-----------------------------------------------------------------|
A|-----------------------------------------------------------------|
E|-0-0-0-0-0-0-0-0-7-7-7-7-7-7-7-7-4-4-4-4-4-4-4-4-5-5-5-5-5-5-5-5-|

G|-------------------------------------------------|
D|-------------------------------------------------|
A|-------------------------------------------------|
E|-0-0-0-0-0-0-0-0-7-7-7-7-7-7-7-7-4-4-4-4-4-4-4-4-|

G|-----------------------------------------------------------------|
D|-----------------------------------------------------------------|
A|-----------------------------------------------------------------|
E|-0-0-0-0-0-0-0-0-7-7-7-7-7-7-7-7-4-4-4-4-4-4-4-4-5-5-5-5-5-5-5-5-|

G|---------------------------------------------------|
D|---------------------------------------------------|
A|---------------------------------------------------|
E|-0-0-0-0-0-0-0-0-7-7-7-7-7-7-7-7-4-4-4-4-4-4-4-4-5-|

[Chorus]

1:35

G|----------------------------------------|
D|----------------------------------------|
A|----------------------------------------|
E|-0-0--0-0--7-7--7-7--4-4--4-4--5-5--5-5-|

G|----------------------------------------|
D|----------------------------------------|
A|----------------------------------------|
E|-0-0--0-0--7-7--7-7--4-4--4-4--5-5--5-5-|

[Verse]

1:48

G|-----------------------------------------------------------------|
D|-----------------------------------------------------------------|
A|-----------------------------------------------------------------|
E|-0-0-0-0-0-0-0-0-7-7-7-7-7-7-7-7-4-4-4-4-4-4-4-4-5-5-5-5-5-5-5-5-|

G|-------------------------------------------------|
D|-------------------------------------------------|
A|-------------------------------------------------|
E|-0-0-0-0-0-0-0-0-7-7-7-7-7-7-7-7-4-4-4-4-4-4-4-4-|

G|-----------------------------------------------------------------|
D|-----------------------------------------------------------------|
A|-----------------------------------------------------------------|
E|-0-0-0-0-0-0-0-0-7-7-7-7-7-7-7-7-4-4-4-4-4-4-4-4-5-5-5-5-5-5-5-5-|

G|---------------------------------------------------|
D|---------------------------------------------------|
A|---------------------------------------------------|
E|-0-0-0-0-0-0-0-0-7-7-7-7-7-7-7-7-4-4-4-4-4-4-4-4-5-|

[Chorus]

2:16

G|----------------------------------------|
D|----------------------------------------|
A|----------------------------------------|
E|-0-0--0-0--7-7--7-7--4-4--4-4--5-5--5-5-|

G|----------------------------------------|
D|----------------------------------------|
A|----------------------------------------|
E|-0-0--0-0--7-7--7-7--4-4--4-4--5-5--5-5-|

[Post-chorus]

2:33

G|---------|
D|---------|
A|---------|
E|-4~---5~-|

G|---------|
D|---------|
A|---------|
E|-4~---5~-|

[Bridge]

2:43

G|-------------------|
D|-------------------|
A|-------------------|
E|-0~---7~---4~---5~-|

[Chorus]

3:00

Rest for first part

3:07

G|----------------------------------------|
D|----------------------------------------|
A|----------------------------------------|
E|-0-0--0-0--7-7--7-7--4-4--4-4--5-5--5-5-|

G|----------------------------------------|
D|----------------------------------------|
A|----------------------------------------|
E|-0-0--0-0--7-7--7-7--4-4--4-4--5-5--5-5-|

G|----------------------------------------|
D|----------------------------------------|
A|----------------------------------------|
E|-0-0--0-0--7-7--7-7--4-4--4-4--5-5--5-5-|

[Post-chorus]

3:27

G|-------------------|
D|-------------------|
A|-------------------|
E|-0~---7~---4~---5~-|

G|-------------------|
D|-------------------|
A|-------------------|
E|-0~---7~---4~---5~-|

G|-------------------|
D|-------------------|
A|-------------------|
E|-0~---7~---4~---5~-|

G|-------------------|
D|-------------------|
A|-------------------|
E|-0~---7~---4~---5~-|

[Outro]

3:54

G|----|
D|----|
A|----|
E|-0~-|

*******

~ = Vibrato

            
            
Suggest correction
Creating personal tab
Creating personal tab
You can edit any tab online and save it as your Personal.

You can edit, replace or remove any tab part or add personal notes – all changes will be seen only by you.

Personal tabs can be accessed anytime from any device, even offline.
Learn more »
Give kudos to tab author, rate the tab!
1 2 3 4 5
comments
print report bad tab
1 comment total.
0 reply
laurengreen 235 May 30, 2016 05:33 AM

really good thank you

guest
You may want to rate the tab now too:
select rating
Wanna post a correction for this tab? Suggest correction