Oops, an error
Loading. Please wait.

Good Girls Tab

version 2
version 2

Whole song

Interactive

Video

12,556 views 72 this week
1 commentread comment
1 2 3 4 5
excellent!
x 19
add to favorites
launch autoscroll
font size
0
reset
how to read this tab
guitar tuner
Tab Pro tools
  • play this tab
  • loop segment
  • change instrument
  • show fretboard
  • metronome
×
Best way to learn
"Good Girls"
Autoscroll
slow
fast
+/-
esc
set tempo
stop
Contributor
Difficulty
intermediate
-------------------------------------------------------------------------------
                             Good Girls - 5 Seconds Of Summer
-------------------------------------------------------------------------------
Watch my cover of this on Youtube: https://www.youtube.com/watch?v=mr6Zi1psCqM 


Tabbed by:oliviagatt

Tuning:Standard-no capo

Listen to my cover of this song on my soundcloud: 
https://soundcloud.com/olivia-gatt/good-girls-guitar-cover-by-olivia-gatt

INTRODUCTION:

e|-------------------------------------|
B|-------------------------------------|
G|--9----9----9----9----9---9---9---9--| x1
D|-9-9-9--9-9--9--9-9--9-9-9-9-9-9-9-9-|
A|7--------------0----7-----------0----|
E|----7----9--------------7---9--------|

VERSE: (palm mute except for the last note at the end)
 If you want for the first 1/2 of the verse you can do the introduction and then move to this:

e|-----------------------------------------------------------------------|
B|----------------------------------------------------2-2-2-2-2-2-2---2--|
G|-1-1-1-1-1-1-1-1--4-4-4-4-4-4-4-4--6-6-6-6-6-6-6-6--2-2-2-2-2-2-2---2--|
D|-2-2-2-2-2-2-2-2--4-4-4-4-4-4-4-4--6-6-6-6-6-6-6-6--2-2-2-2-2-2-2---2--| x4
A|-2-2-2-2-2-2-2-2--2-2-2-2-2-2-2-2--4-4-4-4-4-4-4-4---------------------|
E|-----------------------------------------------------------------------|

CHORUS:

e|------------------------------------|
B|----------------------------2-2-2-2-|
G|-1-1-1-1--4-4-4-4--6-6-6-6--2-2-2-2-|
D|-2-2-2-2--4-4-4-4--6-6-6-6--2-2-2-2-| x2
A|-2-2-2-2--2-2-2-2--4-4-4-4----------|
E|------------------------------------|

BRIDGE:

e|--------------------|
B|----------------2-2-|
G|-1-1--4-4--6-6--2-2-|
D|-2-2--4-4--6-6--2-2-| x2
A|-2-2--2-2--4-4------|
E|--------------------|

VERSE: (palm mute except for the last note at the end)

e|---------------------------------------------------------------------------|
B|----------------------------------------------------2-2-2-2-2-2-2---2------|
G|-1-1-1-1-1-1-1-1--4-4-4-4-4-4-4-4--6-6-6-6-6-6-6-6--2-2-2-2-2-2-2---2------|
D|-2-2-2-2-2-2-2-2--4-4-4-4-4-4-4-4--6-6-6-6-6-6-6-6--2-2-2-2-2-2-2---2------| x4
A|-2-2-2-2-2-2-2-2--2-2-2-2-2-2-2-2--4-4-4-4-4-4-4-4-------------------------|
E|---------------------------------------------------------------------------|

CHORUS:

e|------------------------------------|
B|----------------------------2-2-2-2-|
G|-1-1-1-1--4-4-4-4--6-6-6-6--2-2-2-2-|
D|-2-2-2-2--4-4-4-4--6-6-6-6--2-2-2-2-| x2
A|-2-2-2-2--2-2-2-2--4-4-4-4----------|
E|------------------------------------|

BRIDGE:
 Play this every second line they sing.
e|-------------------|
B|---------------2-2-|
G|-1---4-4--6-6--2-2-|
D|-2---4-4--6-6--2-2-| x2
A|-2---2-2--4-4------|
E|-------------------|

INTRODUCTION RIFF:

e|--------------------------------------|
B|--------------------------------------|
G|---9----9----9----9----9---9---9---9--| x2
D|--9-9-9--9-9--9--9-9--9-9-9-9-9-9-9-9-|
A|-7--------------0----7-----------0----|
E|-----7----9--------------7---9--------|


CHORUS:
 Don't play the first line as it is just them singing. 
e|------------------------------------|
B|----------------------------2-2-2-2-|
G|-1-1-1-1--4-4-4-4--6-6-6-6--2-2-2-2-|
D|-2-2-2-2--4-4-4-4--6-6-6-6--2-2-2-2-| x3
A|-2-2-2-2--2-2-2-2--4-4-4-4----------|
E|------------------------------------|

BRIDGE:
 After the chorus just play this until the song ends. 
e|--------------------|
B|----------------2-2-|
G|-1-1--4-4--6-6--2-2-|
D|-2-2--4-4--6-6--2-2-| x4
A|-2-2--2-2--4-4------|
E|--------------------|

Final note played:

e|---|
B|---|
G|-1-|
D|-2-| x1
A|-2-|
E|---|
comments
print report bad tab
1 comment total.
0 reply
lg187 wrote on November 1 2014, 04:40 pm

Chorus is actually

E|-----------
B|-----------
G|-1--4--------
D|-2--4--6--7----
A|-2--2--7--7----
E|-0-----4--5---

Verse clean part is something like

E|----------
B|-----5-----
G|---4---4----
D|-6---------
A|----------
E|----------

I want to post or [tab]
guest
You may want to rate the tab now too:
select rating
Please do not post tabs as comments. Select "correction" instead!