Oops, an error
Loading. Please wait.

Gotta Get Out Tab

version 1
version 1

Intro

5,935 views 21 this week
2 commentsread comments
1 2 3 4 5
x 17
add to favorites
launch autoscroll
font size
0
reset
how to read this tab
guitar tuner
Autoscroll
slow
fast
+/-
esc
set tempo
stop
Help us to improve Ultimate-Guitar.com Take our survey!
×
Author
Capo
2nd fret
CAPO 2
E-------------------------------------------------------------------------|
B-------------------------------------------------------------------------|
G------0--------0--------0--------0--------0---------0--------0-------0---|
D----0---0----0---0----0---0----0---0----0---0-----0---0----0---0---0---0-|
A--3--------3---------5-------5---------2--------2--------3------3--------|
E-------------------------------------------------------------------------|
Suggest correction
comments
print report bad tab
2 comments total.
0 reply
Jess1DBYE 42 Apr 22, 2013 12:36 PM

instead of
E-------------------------------
B-------------------------------
G---------0------------0--------
D-------0---0--------0---0------
A-------------------------------
E-----3-----------3-------------
it should be
E-------------------------------
B-------------------------------
G---------0------------0--------
D-------0---0--------0---0------
A-----5------------5------------
E-------------------------------
i think.. :)

0 reply
breannamae1d 21 Dec 30, 2013 02:06 AM

im pretty sure this is all correct... it is the fifth fret but with the capo on you call it the third so it is right :-)

guest
You may want to rate the tab now too:
select rating
Wanna post a correction for this tab? Suggest correction