Oops, an error
Loading. Please wait.

Gotta Get Out Chords

version 2
version 2

Whole song

  • This song is in the Key of A.
  • It's more accurate and easier to play for beginner... Show more
15,784 views 21 this week
no commentswrite comment
1 2 3 4 5
x 4
add to favorites
launch autoscroll
font size
0
reset
transpose
0
reset
simplify chords
display chords
guitar tuner
Autoscroll
slow
fast
+/-
esc
set tempo
stop
Help us to improve Ultimate-Guitar.com Take our survey!
×
Author
Capo
1st fret
Capo 1 or 2

[Chords]
    G     C9   *D2    C    Em7   D/F#   D
e|--3--|--3--|--0--|--0--|--3--|--3--|--2--|
B|--3--|--3--|--3--|--1--|--3--|--3--|--3--|
G|--0--|--0--|--0--|--0--|--0--|--2--|--2--|
D|--0--|--2--|--4--|--2--|--2--|--0--|--0--|
A|--2--|--3--|--5--|--3--|--2--|--0--|--x--|
E|--3--|--x--|--0--|--x--|--0--|--2--|--x--|

[Lead riff]
(for Intro & Verses)
e|-------------------------------------------------------------------------|
B|-------------------------------------------------------------------------|
G|------0--------0--------0--------0--------0---------0--------0-------0---|
D|----0---0----0---0----0---0----0---0----0---0-----0---0----0---0---0---0-|
A|--3--------3-------/5--------5--------\2--------2-------/3------3--------|
E|-------------------------------------------------------------------------|

[Verse 1]
(use the tab)
Even when the sky is falling down
Even when the earth is crumbling around my feet
Even when we try to say goodbye
And you can cut the tension with a knife in here

[Pre-chorus]
(strum once)
     C9
Cause i know what will happen
D
  if we get through this

[Chorus]
G                           C9
   And if the earth ends up crumbling down to its knees baby
Em7                       D/F#                    C9
   we just gotta get out, we just gotta get out
G                                C9
   and if the skyscrapers tumble down and crash around then baby
Em7                       D/F#                    C9
   we just gotta get out, we just gotta get out

[Post-Chorus]
(Guitar 1)
e|-------------------------------------------------------------------------|
B|-------------------------------------------------------------------------|
G|------0--------0--------0--------0--------0---------0--------0-------0---|
D|----0---0----0---0----0---0----0---0----0---0-----0---0----0---0---0---0-|
A|--3--------3-------/5--------5--------\2--------2-------/3------3--------|
E|-------------------------------------------------------------------------|

[Guitar 2]
(palm muted)
e|--3---3---3---3---5---5---5---5---2---2---2---2---3---3---3---3---|
B|----3---3---3---3---3---3---3---3---3---3---3---3---3---3---3---3-|
G|------------------------------------------------------------------|
D|------------------------------------------------------------------|
A|------------------------------------------------------------------|
E|------------------------------------------------------------------|

(do this until "everything is falling down...")

[Verse 2] 
(do intro tab)
I feel so damn lost
And it comes with a cost
   C9
of being alone
C9            D2                  Em7         D/F#
everything is falling down we're suffering hopeless thought
      C9         D2                  Em7          D/F#
and out we sing prayers go to the sky

[Chorus]
G                           C9
   And if the earth ends up crumbling down to its knees baby
Em7                       D/F#                    C9
   we just gotta get out, we just gotta get out
G                                C9
   and if the skyscrapers tumble down and crash around then baby
Em7                       D/F#                    C9
   we just gotta get out, we just gotta get out

[Bridge]
D2              C9 
  And if we fall (it's not your fault)
D2                C9 
  Shadows covering (our selfish foes)
D2               C9                D2        C9
  And as our love (go out of the high note)

[Breakdown] 
e|-------------------------------------------------------------------------|
B|-------------------------------------------------------------------------|
G|------0--------0--------0--------0--------0---------0--------0-------0---|
D|----0---0----0---0----0---0----0---0----0---0-----0---0----0---0---0---0-|
A|--3--------3-------/5--------5--------\2--------2-------/3------3--------|
E|-------------------------------------------------------------------------|

Even when the sky is falling down
Even when the earth is crumbling around my feet
C9
Around my feet

[Chorus]
G                           C9
   And if the earth ends up crumbling down to its knees baby
Em7                       D/F#                    C9
   we just gotta get out, we just gotta get out
G                                C9
   and if the skyscrapers tumble down and crash around then baby
Em7                       D/F#                    C9
   we just gotta get out, we just gotta get out

[Outro] 
(strum once)
G                          C9
   And if the earth ends up crumbling down to its knees then baby
Em7                        D/F#                  G
   we just gotta get out, we just gotta get out
Suggest correction
comments
print report bad tab
guest
You may want to rate the tab now too:
select rating
Wanna post a correction for this tab? Suggest correction