Oops, an error
Loading. Please wait.

I Cant Remember bass

version 1
version 1

Whole song

3,222 views 12 this week
3 commentsread comments
1 2 3 4 5
x 4
add to favorites
×
Save as Personal and add changes to this tab that will be seen only by you. Learn more ›
×
You can save this tab as Personal to edit and correct it or add notes. All changes will be seen only by you. Learn more »
launch autoscroll
font size
0
reset
guitar tuner
edit
Autoscroll
slow
fast
+/-
esc
set tempo
stop
-------------------------------------------------------------------------------
                            I Can't Remember - 5 Seconds of Summer
-------------------------------------------------------------------------------
Tabbed by: Ariel McAnulty
E-mail: 

Tuning: Standard 
I would play along with the song. It helps a lot with the counting.

"-" this means the part goes through those lyrics.. if that makes sense
   
"Hey pretty girl- alright, see you later"
G|------------------------------|
D|------------------------------|
A|-7--------------7-------------|
E|-----7---5---5-----7---5---7--|

"wrapped up late- Damn you look amazing"
G|------------------------------------------------------------------------|
D|------------------------------------------------------------------------|
A|-77777777---------------------------44444444----------------------------|
E|----------77777777-55555555-55555555--------44444444-55555555\----------|

"Last night what a blur woke up lying next to her, last night made a mess doesn't get better than this 
(repeat until 25 texts and a call from mom)
G|---------------------------------------------------------------------------|
D|---------------------------------------------------------------------------|
A|-77------------77-------7-9-h11-p9-\7--------------------------------------|
E|---77--55--77----77--55----------------------------------------------------|

"must have been good cause i cant remember."
G|---------------------------------------------------------------------------|
D|---------------------------------------------------------------------------|
A|-44--------7-9-h11-p9-\7---------------------------------------------------|
E|----44--55-----------------------------------------------------------------|

go back to the top 




Talking part



"Bro... where's your shirt
G|---------------------------------------------------------------------------|
D|---------------------------------------------------------------------------|
A|--777--999--11--11-11-11---666-777-9---------------------------------------|
E|---------------------------------------------------------------------------|

"Oh Shit."

"What the hell happened last night?

G|---------------------------------------------------------------------------|
D|---------------------------------------------------------------------------|
A|-4-4-4-4-4-4-4-4-4-4-4-12-11-----------------------------------------------|
E|---------------------------------------------------------------------------|

Repeat until "Who was that girl from last night anyway"

Play beginning again x2
 

The "cant remember cant remember," part play the same as the beginning of the chorus.
And that is it. Look up Ariel McAnulty on Youtube for a full play through :)


| /  slide up
| \  slide down
| h  hammer-on
| p  pull-off
| ~  vibrato
| +  harmonic
| x  Mute note
===============================================================================v

            
            
Suggest correction
Creating personal tab
Creating personal tab
You can edit any tab online and save it as your Personal.

You can edit, replace or remove any tab part or add personal notes – all changes will be seen only by you.

Personal tabs can be accessed anytime from any device, even offline.
Learn more »
comments
print report bad tab
3 comments total.
0 reply
lalaloopsy12 10 Aug 01, 2016 10:22 AM

I just don't like it - no special reason

0 reply
lalaloopsy12 10 Aug 01, 2016 10:22 AM

I just don't like it - no special reason

0 reply
lalaloopsy12 10 Aug 01, 2016 10:27 AM

I just don't like it - no special reason

guest
You may want to rate the tab now too:
select rating
Wanna post a correction for this tab? Suggest correction