Oops, an error
Loading. Please wait.

I Cant Remember bass

version 2
version 2

Whole song

626 views 3 this week
1 commentread comment
1 2 3 4 5
1 last vote to show rating
add to favorites
×
Save as Personal and add changes to this tab that will be seen only by you. Learn more ›
×
You can save this tab as Personal to edit and correct it or add notes. All changes will be seen only by you. Learn more »
launch autoscroll
font size
0
reset
guitar tuner
edit
Autoscroll
slow
fast
+/-
esc
set tempo
stop
Author
Difficulty
-------------------------------------------------------------------------------
                             5 Seconds Of Summer - I Can't Remember
-------------------------------------------------------------------------------
Tabbed by: Mikaella

Tuning: Normal

"Hey pretty girl..."
G|---------------------------------------------------------------------------|
D|---------------------------------------------------------------------------|
A|--7------------7-----------------------------------------------------------|
E|-----7--5--5------7--5--5--------------------------------------------------|


"Wrapped up late."
G|----------------------------------------------------------------------------------------------
D|----------------------------------------------------------------------------------------------
A|--7-7-7-7-7-7-7-7-----------------------------------------------------4-4-4-4-4-4-4-4---------
E|-------------------7-7-7-7-7-7-7-7--5-5-5-5-5-5-5-5--5-5-5-5-5-5-5-5-------------------4-4-4-4

G|-------------------------|
D|-------------------------|
A|-------------------------|
E|-4-4-4-4--5-5-5-5-5-5-5\-|


Chorus 

G|----------------------------------------------------------------------------------------------
D|----------------------------------------------------------------------------------------------
A|--7-7-----------------7-7------------7-9h11p9-7---7-7-7-7---------------------------4-4-------
E|------x-7-7--5-5--7-7-----x-7-7--5-5----------------------7-7-7-7--5-5-5-5--7-7-7-7-----x-4-4-

G|---------------|
D|---------------|
A|----7-9h11p9-7-|
E|5-5------------|


Quick after (optional)
G|-------------------|
D|-------------------|
A|-7-7-7-9-9-9-11----| (11 not 1)
E|-------------------|


Retraced my steps..."
G|----------------------------------------------------------------------------------------------
D|----------------------------------------------------------------------------------------------
A|-7-7-7-7-7-7-7-7-----------------------------------------------------4-4-4-4-4-4-4-4----------
E|------------------7-7-7-7-7-7-7-7--5-5-5-5-5-5-5-5--5-5-5-5-5-5-5-5-------------------4-4-4-4-

G|--------------------------------------------|
D|--------------------------------------------|
A|--------------------------------------------|
E|4-4-4-4--5-5-5-5-5-5-5-5--5-5-5-5-5-5-5-5---|


Chorus
G|----------------------------------------------------------------------------------------------
D|----------------------------------------------------------------------------------------------
A|--7-7-----------------7-7------------7-9h11p9-7---7-7-7-7---------------------------4-4-------
E|------x-7-7--5-5--7-7-----x-7-7--5-5----------------------7-7-7-7--5-5-5-5--7-7-7-7-----x-4-4-

G|---------------|
D|---------------|
A|----7-9h11p9-7-|(11 not 1)
E|5-5------------|


"Bro where's your shirt..."
G|------------------------------------------------------------------------|
D|-------------------------------------------------------------------7-6--|
A|--7--7--7--7-7--9--11--6--7--9\---4--4--4--4--4-4-4--4--4--4--4--4------|(11 not 1)
E|------------------------------------------------------------------------|

G|-----------------------------------------------------------|
D|-----------------------------------------------------------|
A|--7--7--7--7-7--9--11--6--7--9\---4--4--4--4--4-4-4--------| (11 not 1)
E|-----------------------------------------------------------|


Rest


Chorus
G|----------------------------------------------------------------------------------------------
D|----------------------------------------------------------------------------------------------
A|--7-7-----------------7-7------------7-9h11p9-7---7-7-7-7---------------------------4-4-------
E|------x-7-7--5-5--7-7-----x-7-7--5-5----------------------7-7-7-7--5-5-5-5--7-7-7-7-----x-4-4-

G|----------------------------------------------------------------------------------------------
D|----------------------------------------------------------------------------------------------
A|----7-9h11p9-7---7-7-7-7-------------------------7-7-7-7-------------------------7-7-7-7------
E|5-5----------------------7-7-7-7-5-5-5-5-7-7-7-7---------7-7-7-7-5-5-5-5-7-7-7-7---------7-7-7

G|--------------------------------------------|
D|--------------------------------------------|
A|-------------------4-4-----------7-9h11p9-7-| (11 not 1)
E|-7-5-5-5-5-7-7-7-7-----x-4-4-5-5------------|

Outro 
G|----------------------------------------------------------------------------------------------
D|----------------------------------------------------------------------------------------------
A|--7-7-7-7-------------------------7-7-7-7-------------------------7-7-7-7---------------------
E|----------7-7-7-7-5-5-5-5-7-7-7-7---------7-7-7-7-5-5-5-5-7-7-7-7---------7-7-7-7-5-5-5-5-7-7-

G|-------------------------------|
D|-------------------------------|
A|----4-4-----------7-9h11p9-7---| (11 not 1)
E|7-7-----x-4-4-5-5--------------|

Not entirely sure what Calum plays, but it's my first attempt to make a tab so...

\ slide down
x mute note
h hammer on
p pull off

            
            
Suggest correction
Creating personal tab
Creating personal tab
You can edit any tab online and save it as your Personal.

You can edit, replace or remove any tab part or add personal notes – all changes will be seen only by you.

Personal tabs can be accessed anytime from any device, even offline.
Learn more »
Give kudos to tab author, rate the tab!
1 2 3 4 5
comments
print report bad tab
1 comment total.
0 reply
lalaloopsy12 10 Aug 01, 2016 10:24 AM

It is the better tab of the two, for sure. It is more accurate and easier to follow

guest
You may want to rate the tab now too:
select rating
Wanna post a correction for this tab? Suggest correction