Oops, an error
Loading. Please wait.

I Miss You Chords

version 3
version 3

Whole song

6,854 views 36 this week
4 commentsread comments
1 2 3 4 5
x 5
add to favorites
launch autoscroll
font size
0
reset
transpose
0
reset
simplify chords
display chords
guitar tuner
Autoscroll
slow
fast
+/-
esc
set tempo
stop
Help us to improve Ultimate-Guitar.com Take our survey!
×
Author
Difficulty
Capo
novice
1st fret
                              I Miss You - 5 Seconds Of Summer
      -------------------------------------------------------------------------------

I've watched the guys playing this song and I think they use the same chords as 
the original (by Blink 182), but no so sure, anyway, I think it sounds good.
 First you have the chords used by Guitar 1 (Calum) and then by Guitar 2 (Luke).
 They are based on this video: http://www.youtube.com/watch?v=wdPufQd33fM

*Capo: No capo needed, but read below.
*Tunning: The original is played half-step down (D#,G#,C#,F#,A#,d#) but you can 
use standard tunning (EADGBe), I'm not sure how they play it. If you use stardard 
tunning try with a capo on the 1st fret, or just don't use it.
*Strumming pattern: You can play D DUDUD for the verses and D DDD for the chorus.
*Chords:  (654321)
       C:  x32010
     C/B:  x22010
      Am:  x02210
       G:  320033
   Cadd9:  x20010
       F:  133211 or x03210
      Fm:  133111 or x03010 

Here we go (:

-------------------------------------------


GUITAR 1

Intro: {C  C/B  Am  Cadd9} x2

Verse: **NOTE: I'M NOT SURE ABOUT THE "CADD9" IN THE VERSES, THEY COULD BE "G".**

  C              C/B
Hello there, the angel from my nightmare
 Am                             Cadd9
The shadow in the background of the morgue
            C              C/B
The unsuspecting victim of darkness in the valley
   Am                            Cadd9
We can live like Jack and Sally if we want
                 C
Where you can always find me
           C/B
We'll have Halloween on Christmas
   Am                             Cadd9
And in the night we'll wish this never ends
                   C 
We'll wish this never ends.

Interlude:

   C  Cadd9  Am   G  
(I miss you, I miss you)
   C  Cadd9  Am   G                    
(I miss you, I miss you)

Verse: **SAME HERE WITH "CADD9", YOU CAN PLAY "G"**

C             C/B
Where are you and I'm so sorry
  Am                          Cadd9
I cannot sleep I cannot dream tonight
                    C
I need somebody and always
     C/B
This sick strange darkness
      Am                         Cadd9
Comes creeping on so haunting every time
                  C
And as I stared I counted
  C/B
Webs from all the spiders
Am                              Cadd9
Catching things and eating their insides
                   C
Like indecision to call you
    C/B
and hear your voice of treason
     Am                               Cadd9
Will you come home and stop this pain tonight,
                 C 
Stop this pain tonight.


Chorus: **= D strokes with accent.

C**          Cadd9**        Am**         G**
Don't waste your time on me, you're already
    F               Fm
The voice inside my head (I miss you, I miss you)
C**          Cadd9**        Am**         G**
Don't waste your time on me, you're already
    F               Fm
The voice inside my head. 

  C  Cadd9  Am    G  
(I miss you, I miss you)
   C  Cadd9  Am  G                    

Bridge: *= D stroke.

C*           Cadd9*        Am*         G*
Don't waste your time on me, you're already
    F*               C/B*
The voice inside my head. 

Chorus: 

C**          Cadd9**        Am**         G**
Don't waste your time on me, you're already
    F               Fm
The voice inside my head (I miss you, miss you).
C**          Cadd9**        Am**         G**
Don't waste your time on me, you're already
    F               Fm
The voice inside my head (I miss you, miss you).
C**          Cadd9**        Am**         G**
Don't waste your time on me, you're already
    F               Fm
The voice inside my head (I miss you, miss you).
C**          Cadd9**        Am**         G**
Don't waste your time on me, you're already
    F               Fm
The voice inside my head (I miss you, miss you).

C* **

-------------------------------------------

GUITAR 2

/: Down strokes
\: Up strokes

Intro/Verses:

e|---------------------------------------------------------------------------|
B|---------------------------------------------------------------------------|
G|-4-4-4\8-8-8--4-4-4\8-8-8--4-4-4\8-8-8--4-4-4\8-8-8--4---------------------|
D|---------------------------------------------------------------------------|
A|-2-2-2\6-6-6--2-2-2\6-6-6--2-2-2\6-6-6--2-2-2\6-6-6--2---------------------|
E|---------------------------------------------------------------------------|
   / \ / / \ /  / \ // \ /   / \ // \ /  / \ // \ /
(To make it simple: DUD *change* DUD, repeat it four times)

Chorus/Interlude:

e|---------------------------------------------------------------------------|
B|---------------------------------------------------------------------------|
G|-4-4-4-4-4---6-6-6-6-6---8-8-8-8-8--(11)-(11)-(11)-(11)-(11)---------------|
D|---------------------------------------------------------------------------|
A|-2-2-2-2-2---2-2-2-2-2---6-6-6-6-6---9----9----9----9----9-----------------|
E|---------------------------------------------------------------------------|
   / / / \ /   / / / \ /   / / / \ /   /    /    /    \    /
(DDDUD *change* DDDUD *change* DDDUD *change* DDDUD)

e|---------------------------------------------------------------------------|
B|---------------------------------------------------------------------------|
G|-9-9-9-9-9--9-9-9-9-9---4-4-4-4-4--4-4-4-4-4-------------------------------|
D|---------------------------------------------------------------------------|
A|-7-7-7-7-7--7-7-7-7-7---2-2-2-2-2--2-2-2-2-2-------------------------------|
E|---------------------------------------------------------------------------|
 / / / \ /   / / / \ /   / / / \ /   / / / \ /   
(DDDUD *change* DDDUD *change* DDDUD *change* DDDUD)


IF YOUR GUITAR ALLOWS YOU, INSTEAD OF THIS LAST PART (9-9-9-9-7-7-7-7, ec) YOU CAN PLAY:

e|---------------------------------------------------------------------------|
B|---------------------------------------------------------------------------|
G|-(15)-(15)-(15)-(15)-(15)--(15)-(15)-(15)-(15)-(15)---4-4-4-4-4--4-4-4-4-4-|
D|---------------------------------------------------------------------------|
A|-(11)-(11)-(11)-(11)-(11)--(11)-(11)-(11)-(11)-(11)---2-2-2-2-2--2-2-2-2-2-|
E|---------------------------------------------------------------------------|




GUITAR 2 doesn't play the bridge.


-------------------------------------------

There might be some mistakes but as I didn't like the other chords uploaded here, 
I decided to upload the version that, in my opinion, sounds almost great. Anyway, 
let me know what you think! c:

Please RATE!

-Next2UBieber 
Suggest correction
comments
print report bad tab
4 comments total. Showing first comments.
0 reply
Next2UBieber 84 Aug 26, 2013 11:00 PM

Hey guys! Update:
Guitar 1, chorus: instead of Cadd9 try C/B, sounds better for me.
Guitar 2: there's a mistake on chorus/interlude, it says

e|---------------------------------------------------------------------------|
B|---------------------------------------------------------------------------|
G|-4-4-4-4-4---6-6-6-6-6---8-8-8-8-8--(11)-(11)-(11)-(11)-(11)---------------|
D|---------------------------------------------------------------------------|
A|-2-2-2-2-2---2-2-2-2-2---6-6-6-6-6---9----9----9----9----9-----------------|
E|---------------------------------------------------------------------------|

And it's

e|---------------------------------------------------------------------------|
B|---------------------------------------------------------------------------|
G|-4-4-4-4-4---6-6-6-6-6---8-8-8-8-8--(11)-(11)-(11)-(11)-(11)---------------|
D|---------------------------------------------------------------------------|
A|-2-2-2-2-2---4-4-4-4-4---6-6-6-6-6---9----9----9----9----9-----------------|
E|---------------------------------------------------------------------------|

I think it's all, enjoy (:

+1 reply
camille.arroyos 42 Feb 23, 2014 03:02 PM

this was very accurate and i honestly loved great job!

0 reply
Next2UBieber 84 Mar 07, 2014 06:51 PM

thank you very much!

guest
You may want to rate the tab now too:
select rating
Wanna post a correction for this tab? Suggest correction