Oops, an error
Loading. Please wait.

If You Dont Know tab

703 views 15 this week
no commentswrite comment
1 2 3 4 5
2 more votes to show rating
add to favorites
×
Save as Personal and add changes to this tab that will be seen only by you. Learn more ›
×
You can save this tab as Personal to edit and correct it or add notes. All changes will be seen only by you. Learn more »
launch autoscroll
font size
0
reset
how to read this tab
guitar tuner
edit
Autoscroll
slow
fast
+/-
esc
set tempo
stop
-----------------------------------------------------------------------------
                           IF YOU DON'T KNOW - 5 Seconds Of Summer
-----------------------------------------------------------------------------
E-mail: a7xlucas@live.com

Tuning: Drop D (DADGBe)

Check out my cover on YouTube!: https://youtu.be/HmOy0_7GXV0

A lot of the guitar was hard to hear in this song, but whatever's here works pretty well I think.

Also, feel free to play this song in standard (EADGBe), all you have to do is lower the fret number by 2 for
each note on the low E string, so for example 222xxx = 022xxx.

Guitar 1 - Luke Hemmings
Guitar 2 - Michael Clifford

Intro/Verse:

Guitar 1:
e|---------------|-------------0~-0~-0~-0~-------------0~-3~-3~-3~-|
B|---------------|-3~-3~-3~-3~-------------1~-1~-1~-1~-1~-1~-1~-1~-|
G|---(silence)---|-------------------------------------------------| Play this when he sings "Go ahead
D|---------------|-------------------------------------------------| rip my heart out..."
A|---------------|-------------------------------------------------|
D|---------------|-------------------------------------------------|

Guitar 2 
e|---------------|
B|-------5-------|
G|-5-5-5-----7-5-|  Play this however many times until the chorus
D|---------------|
A|---------------|
D|---------------|
   * * *     * *

Chorus:

Guitar 1 (hard to hear)
e|---------------------10~-12~----------------------12~-10~----------------------------------------------|
B|-----------------13~-------------------------------------13~-------------------------------------------|
G|-9-------16--------------------10-----9-----5-------------------9------14-----10-----9-----5-----10----|
D|----x16------x12-------------------x4----x4----x12-----------------x16-----x8-----x4----x4----x8----x8-|
A|-7-------14--------------------8------7-----3-------------------7------12------8-----7-----3-----8-----|
D|-------------------------------------------------------------------------------------------------------|

Guitar 2
e|---------------------------------------------------------|
B|---------------------------------------------------------|
G|-5~-----4~-----2~------------5~------------2~------------|
D|-5~-----5~-----2~-----3~-----5~-----2~-----2~-----3~-----|
A|-3~-----2~-----0~-----3~-----3~-----2~-----0~-----3~-----|
D|----------------------3~------------2~------------3~-----|

Verse 2:

Guitar 1 (hard to hear)
e|---------------4x-|-------------0~-0~-0~-0~-------------0~-3~-3~-3~-|
B|------------------|-3~-3~-3~-3~-------------1~-1~-1~-1~-1~-1~-1~-1~-|
G|------------------|-------------------------------------------------|
D|------------------|-------------------------------------------------|
A|------------------|-------------------------------------------------|
D|-7~--x16--3~--x16-|-------------------------------------------------|

Guitar 2 
e|---------------|------------2x-|------------2x-|------------2x-|-----------------------------|
B|-------5-------|-------8-------|-------6-------|-------8-------|-------6-------------5-------|
G|-5-5-5-----7-5-|-5-5-5-----7-5-|-5-5-5-----7-5-|-5-5-5-----7-5-|-5-5-5-----7-5-5-5-5-----7-5-|
D|---------------|---------------|---------------|---------------|-----------------------------|
A|---------------|---------------|---------------|---------------|-----------------------------|
D|-----------16x-|---------------|---------------|---------------|-----------------------------|
   * * *     * *   * * *     * *   * * *     * *   * * *     * *   * * *     * * * * *     * *
Bridge:

Guitar 1
e|-------------------2x-|
B|----------------------|
G|----------------------|
D|----------------------|
A|----------------------|
D|-7--x16-5--x16-3--x16-|

Guitar 2 (hard to hear)
e|-------5~---5~-----5~-5~-5~-5-------------0---------------5~---5~----7~-7~-7~-7~-------------8~-8~-8~-8~-|
B|-----8----8----8-8------------8~-8~-6~-6~---6~-6~-6~-6~-8----8----8~-------------8~-8~-8~-8~-------------|
G|---5-----------------------------------------------------------------------------------------------------|
D|---------------------------------------------------------------------------------------------------------|
A|---------------------------------------------------------------------------------------------------------|
D|---------------------------------------------------------------------------------------------------------|

Repeat:
Chorus

Outro (both guitars):
e|--------------------|
B|--------------------|
G|-5~-----------------|
D|-5~-----------------|
A|-3~-----------------|
D|--------------------|
__________________________________________
* = palm mute
Suggest correction
Creating personal tab
Creating personal tab
You can edit any tab online and save it as your Personal.

You can edit, replace or remove any tab part or add personal notes – all changes will be seen only by you.

Personal tabs can be accessed anytime from any device, even offline.
Learn more »
Give kudos to tab author, rate the tab!
1 2 3 4 5
comments
print report bad tab
guest
You may want to rate the tab now too:
select rating
Wanna post a correction for this tab? Suggest correction