Oops, an error
Loading. Please wait.

Invisible intro bass

943 views 3 this week
no commentswrite comment
1 2 3 4 5
x 4
add to favorites
×
Save as Personal and add changes to this tab that will be seen only by you. Learn more ›
×
You can save this tab as Personal to edit and correct it or add notes. All changes will be seen only by you. Learn more »
launch autoscroll
font size
0
reset
guitar tuner
edit
Autoscroll
slow
fast
+/-
esc
set tempo
stop
Wait till the guitar does the intro and then start when Calum begins to sing. 


G|------------------------------4--------2--------0--0-----------------------|
D|-12-----11------9--9-------------------------------------------------------|
A|---------------------------------------------------------------------------|    2x
E|---------------------------------------------------------------------------|

G|----------------2------------------------------0---------------------------|
D|---9 -----------------------12---------------------------------------------|    2x before chorus starts
A|---------------------------------------------------------------------------|
E|---------------------------------------------------------------------------|


These sequences are also in Verse 2.

At the end of the song after the start of the acoustic guitar do the first sequence again. 

If you have any changes or things you want to add by all means comment down below.
My friend and I are still trying to figure out the rest of the song so bear with us while we test different 
ideas of what could be right :)

            
            
Suggest correction
Creating personal tab
Creating personal tab
You can edit any tab online and save it as your Personal.

You can edit, replace or remove any tab part or add personal notes – all changes will be seen only by you.

Personal tabs can be accessed anytime from any device, even offline.
Learn more »
comments
print report bad tab
guest
You may want to rate the tab now too:
select rating
Wanna post a correction for this tab? Suggest correction