Oops, an error
Loading. Please wait.

Invisible intro tab

version 1
version 1

Intro

  • I believe that these tabs sound more accurate comp... Show more

Whole song

  • Includes video, tuning and capo for easier playing, and nearly exact tab.
13,399 views 12 this week
1 commentread comment
1 2 3 4 5
x 20
add to favorites
×
Save as Personal and add changes to this tab that will be seen only by you. Learn more ›
×
You can save this tab as Personal to edit and correct it or add notes. All changes will be seen only by you. Learn more »
launch autoscroll
font size
0
reset
how to read this tab
guitar tuner
edit
Autoscroll
slow
fast
+/-
esc
set tempo
stop
Author
Difficulty
Invisible – 5 Seconds of Summer 5SOS

2nd string down to A*

Intro and Verse

e|-----------------|-----------------|---------------|---------------|
A|-------0---------|-------0---------|-------0-------|-------0-------|
G|-----------------|-----------------|---------------|---------------|
D|---0-------0---0-|---0-------0---0-|---0-------0---|---0-------0---|
A|-5---5---5---5---|-4---4---4---4---|---------------|---------------|
E|-----------------|-----------------|-3---3---3---3-|-3---3---3---3-|



e|-----------------|-----------------|---------------|---------------|
A|-------0---------|-------0---------|-------0-------|-------0-------|
G|-----------------|-----------------|---------------|---------------|
D|---0-------0---0-|---0-------0---0-|---0-------0---|---0-------0---|
A|-----------------|-----------------|---------------|---------------|
E|/7---7---7---7---|-5---5---5---5---|-3---3---3---3-|-3---3---3---3-|


Pre Chorus x2

e|-----------------|-----------------|---------------|---------------|
A|-------0---------|-------0---------|-------0-------|-------0-------|
G|-----------------|-----------------|---------------|---------------|
D|---0-------0---0-|---0-------0---0-|---0-------0---|---0-------0---|
A|-----------------|-----------------|-5---5---5---5-|-5---5---5---5-|
E|-7---7---7---7---|-5---5---5---5---|---------------|---------------|


Chorus – Chords Strumming


* It is possible to play this in standard tuning (and replace the 0 with a '2') but there is a 
  definite slide sound up to the 7 so I'm thinking it's played like this. 
  If anyone has a better idea let me know!

_____________________________________________________________________
For JJ, Vanessa, Robyn and all the 5SOS fans at OLSHCK and BCR Sydney

            
            
Suggest correction
Creating personal tab
Creating personal tab
You can edit any tab online and save it as your Personal.

You can edit, replace or remove any tab part or add personal notes – all changes will be seen only by you.

Personal tabs can be accessed anytime from any device, even offline.
Learn more »
comments
print report bad tab
1 comment total.
+1 reply
avery.1470 10 Oct 26, 2015 01:57 PM

What are the chords for the chorus?

guest
You may want to rate the tab now too:
select rating
Wanna post a correction for this tab? Suggest correction