Oops, an error
Loading. Please wait.

Invisible intro tab

version 2
version 2

Intro

  • I believe that these tabs sound more accurate comp... Show more

Whole song

  • Includes video, tuning and capo for easier playing, and nearly exact tab.
553 views 1 this week
1 commentread comment
1 2 3 4 5
x 3
add to favorites
×
Save as Personal and add changes to this tab that will be seen only by you. Learn more ›
×
You can save this tab as Personal to edit and correct it or add notes. All changes will be seen only by you. Learn more »
launch autoscroll
font size
0
reset
how to read this tab
guitar tuner
edit
Autoscroll
slow
fast
+/-
esc
set tempo
stop
About this tab version
I believe that these tabs sound more accurate compared to others. They are set out differently and the tuning is in a different order. Was this info helpful? Yes No
Capo 2


[Intro]

e|---------------------------------------------------------------------------|
B|---------------------------------------------------------------------------|
G|--------0--------------------0--------------------0-----------------0------|
C|---0-------0----0-----0---------0----0------0-------0-----0----0------0---0|
A|-3---3-------3-----2-----2--------2----------------------------------------|
E|-----------------------------------------1----1--------1-----1---1------1--|

e|-----------------------------------------------------------------------------|
B|-----------------------------------------------------------------------------|
G|----------0-----------------------0--------------------0---------------------|
C|-----0-------0-----0--------0-------0-----0------0--------0---0--------------|
A|-----------------------------------------------------------------------------|
E|--5-----5-------5--------3-----3------3--------1----1-------1----------------|

e|---------------------------------------------------------------------------|
B|---------------------------------------------------------------------------|
G|---------0-----------------------------------------------------------------|
c|----0--------0-----0-------------------------------------------------------|
A|---------------------------------------------------------------------------|
E|-1-----1--------1----------------------------------------------------------|

            
            
Suggest correction
Creating personal tab
Creating personal tab
You can edit any tab online and save it as your Personal.

You can edit, replace or remove any tab part or add personal notes – all changes will be seen only by you.

Personal tabs can be accessed anytime from any device, even offline.
Learn more »
Give kudos to tab author, rate the tab!
1 2 3 4 5
comments
print report bad tab
1 comment total.
0 reply
KylaHood 17 Mar 10, 2016 03:20 AM

Make sure to have the tuning in EACGbe!

guest
You may want to rate the tab now too:
select rating
Wanna post a correction for this tab? Suggest correction