Oops, an error
Loading. Please wait.

Invisible tab

version 3
version 3

Whole song

  • Includes video, tuning and capo for easier playing, and nearly exact tab.
103 views 3 this week
no commentswrite comment
1 2 3 4 5
2 more votes to show rating
add to favorites
×
Save as Personal and add changes to this tab that will be seen only by you. Learn more ›
×
You can save this tab as Personal to edit and correct it or add notes. All changes will be seen only by you. Learn more »
launch autoscroll
font size
0
reset
how to read this tab
guitar tuner
edit
Autoscroll
slow
fast
+/-
esc
set tempo
stop
About this tab version
Includes video, tuning and capo for easier playing, and nearly exact tab. Was this info helpful? Yes No
VIDEO LESSON (not mine): https://www.youtube.com/watch?v=WZaZY9eURUk

tune the D string down to C, capo 2

_______________________________________




[Verse] 
"Another day, painted walls and football on the TV..."
e|------------------|-------------------|----------------|----------------|------------------|
B|------------------|-------------------|----------------|----------------|------------------|
G|---------0--------|--------0----------|------0---------|------0---------|--------0---------|
C|-----0-------0---0|----0--------0---0-|--0-------0---0-|--0-------0---0-|----0-------0---0-|
A|---3---3---3---3--|--2---2----2---2---|----------------|----------------|--0---0---0---0---|
E|------------------|-------------------|1---1---1---1---|1---1---1---1---|------------------|
   
e|-----------------|----------------|----------------|
B|-----------------|----------------|----------------|
G|------0----------|------0---------|------0---------|
C|--0-------0---0--|--0-------0---0-|--0-------0---0-|
A|-----------------|----------------|----------------|
E|3---3----3---3---|1---1---1---1---|1---1---1---1---|


[CHORUS] 
"I was already missing before the night I left..."
e|---------------------|------------------|----------------|----------------|
B|---------------------|------------------|----------------|----------------|
G|-----------0---------|------0-----------|-------0--------|------0---------|
C|-------0-------0---0-|---0------0---0---|---0-------0---0|--0-------0---0-|    x2
A|-----0---0---0---0---|------------------|-3---3---3---3--|----------------|
E|---------------------|3---3---3---3-----|----------------|1---1---1---1---|



[INTERLUDE]
  Pattern 1          Pattern 2           Pattern 3        Pattern 6        Pattern 7
e|------------------|-------------------|----------------|----------------|----------------|
B|------------------|-------------------|----------------|----------------|----------------|
G|---------0--------|--------0----------|------0---------|------2---------|------1---------|
C|-----0-------0---0|----0--------0---0-|--0-------0---0-|--0-------0---0-|--0-------0---0-|
A|---3---3---3---3--|--2---2----2---2---|----------------|----------------|----------------|
E|------------------|-------------------|1---1---1---1---|1---1---1---1---|1---1---1---1---|


  Pattern 1          Pattern 3
e|-------------------|-------------------|----------------|
B|-------------------|-------------------|----------------|
G|---------0---------|--------0----------|------0---------|
C|-----0-------0---0-|----0--------0---0-|--0-------0---0-|
A|---3---3---3---3---|-------------------|----------------|
E|-------------------|--1---1---1---1----|1---1---1---1---|


from there you just repeat the verse again and then the chorus. :)

            
            
Suggest correction
Creating personal tab
Creating personal tab
You can edit any tab online and save it as your Personal.

You can edit, replace or remove any tab part or add personal notes – all changes will be seen only by you.

Personal tabs can be accessed anytime from any device, even offline.
Learn more »
Give kudos to tab author, rate the tab!
1 2 3 4 5
comments
print report bad tab
guest
You may want to rate the tab now too:
select rating
Wanna post a correction for this tab? Suggest correction