Oops, an error
Loading. Please wait.

Jet Black Heart bass

version 1
version 1

Whole song

23,732 views 78 this week
3 commentsread comments
1 2 3 4 5
x 23
add to favorites
×
Save as Personal and add changes to this tab that will be seen only by you. Learn more ›
×
You can save this tab as Personal to edit and correct it or add notes. All changes will be seen only by you. Learn more »
launch autoscroll
font size
0
reset
guitar tuner
edit
Autoscroll
slow
fast
+/-
esc
set tempo
stop
NOTE: This is not too faithful to the studio version. 
This is what Calum will play live 90% of the time, and personally I think it's more fun.

  Verse 0:22
G|-----------------------------------------------------------------|
D|-----------------------------------------------------------------|
A|-------------------------------------------------------------5-4-|
E|-7-7-7-7-7-2-2-2-3-3-3-3-3-5-5-5-7-7-7-7-7-2-2-2-3-3-3-3-3-5-----|
   1 + 2 + 3 + 4 + 1 + 2 + 3 + 4 + 1 + 2 + 3 + 4 + 1 + 2 + 3 + 4 +

G|-----------------------------------------------------------------|
D|--------------------------------------------------------/55555555|
A|---------------------------------7-------------------------------|
E|-7-7-7-7-7-2-2-2-3-3-3-3-3-5-5-----7-7-7-7-2-2-2-3-3-3-3---------|
   1 + 2 + 3 + 4 + 1 + 2 + 3 + 4 + 1 + 2 + 3 + 4 + 1 + 2 + 3 + 4 +

  Chorus 0:47
G|-----------------------------------------------------------------|
D|-----------------------------------------------------------------|
A|-----------------------------------------------------------------|
E|-----------------------------------------------------------------|
   1 e + a 2 e + a 3 e + a 4 e + a 1 e + a 2 e + a 3 e + a 4 e + a

G|-----------------------------------------------------------------|
D|-----------------------------------------------------------------|
A|---------------------------------------------------------5-5-5-7-|
E|-5---5---5---5---7---7---7---7---3---3---3---3---3---3-----------|
   1 e + a 2 e + a 3 e + a 4 e + a 1 e + a 2 e + a 3 e + a 4 e + a

G|-----------------------------------------------------------------|
D|-----------------------------------------------------------------|
A|-------------------------------------------------x-5-5---5-5-5-7-|
E|-5---5---5---5---7---7---7---7---3---3---3---3-------------------|
   1 e + a 2 e + a 3 e + a 4 e + a 1 e + a 2 e + a 3 e + a 4 e + a

G|-----------------------------------------------------------------|
D|------------------------------------------------/5-5-5-5-5-5-5-5-|
A|-----------------------------------------------------------------|
E|-5---5---5---5---7---7---7---7---3---3---3---3-------------------|
   1 e + a 2 e + a 3 e + a 4 e + a 1 e + a 2 e + a 3 e + a 4 e + a

Rest

  Verse 1:18
G|-------------------------7-------------------------------9-------|
D|-9---9-\-------------4-----4---4-5---5---------------7-----7---7-|
A|-----------------------------------------------------------------|
E|-----------------------------------------------------------------|
   1 e + a 2 e + a 3 e + a 4 e + a 1 e + a 2 e + a 3 e + a 4 e + a

G|---------------------7-------------------------------7-9---------|
D|-9---9-----------4-----4-------4-5---5---\---------------7-------|
A|-----------------------------------------------------------------|
E|-----------------------------------------------------------------|
   1 e + a 2 e + a 3 e + a 4 e + a 1 e + a 2 e + a 3 e + a 4 e + a

G|---------------------------------------------------------------9-|
D|-9-9-9-9-9-9-9-9-9-9-4-4-4-4-4-4-5-5-5-5-5-5-5-5-5-5-7-7-7-7-7---|
A|-----------------------------------------------------------------|
E|-----------------------------------------------------------------|
   1 e + a 2 e + a 3 e + a 4 e + a 1 e + a 2 e + a 3 e + a 4 e + a

G|-----------------------------------------------------------------|
D|-9-9-9-9-9-9-9-9-9-9-4-4-4-4-4-4-5-5-5-5-5-5-5-\-----------------|
A|-----------------------------------------------------------------|
E|-------------------------------------------------3-3-3-3-x-x-x-x-|
   1 e + a 2 e + a 3 e + a 4 e + a 1 e + a 2 e + a 3 e + a 4 e + a

  Chorus 1:43
G|-----------------------------------------------------------------|
D|-----------------------------------------------------------------|
A|-------------------------------------------------x-5-5-5-5-5-5-7-|
E|-5---5---5---5---7---7---7---7---3---3---3---3-------------------|
   1 e + a 2 e + a 3 e + a 4 e + a 1 e + a 2 e + a 3 e + a 4 e + a

G|-----------------------------------------------------------------|
D|-----------------------------------------------------------------|
A|-------------------------------------------------5-7-7-7-----5-7-|
E|-5---5---5---5---7---7---7---7---3---3---3---3-----------4-7-----|
   1 e + a 2 e + a 3 e + a 4 e + a 1 e + a 2 e + a 3 e + a 4 e + a

G|-----------------------------------------------------------------|
D|---------------------------------------------------------7-5-4---|
A|-------------------------------------------------x-5-5-5-------5-|
E|-5---5---5---5---7---7---7---7---3---3---3---3-------------------|
   1 e + a 2 e + a 3 e + a 4 e + a 1 e + a 2 e + a 3 e + a 4 e + a

G|-----------------------------------------------------------------|
D|-----------------------------------------------------------------|
A|-----------------------------------------------/-1010101010101010|
E|-5---5---5---5---7---7---7---7---3---3---3---3-------------------|
   1 e + a 2 e + a 3 e + a 4 e + a 1 e + a 2 e + a 3 e + a 4 e + a

  Bridge 2:08
G|-------------------------------------------------------------------|
D|o-----------------------------------------------------------------o|
A|o-5---------------------------------------------------------------o|
E|-------------------------------------------------------------------|x3
    1 e + a 2 e + a 3 e + a 4 e + a 1 e + a 2 e + a 3 e + a 4 e + a

G|-----------------------------------------------------------------|
D|-----------------------------------------------------------------|
A|-4---------------------------------------------------------------|
E|-----------------------------------------------------------------|
   1 e + a 2 e + a 3 e + a 4 e + a 1 e + a 2 e + a 3 e + a 4 e + a

G|-----------------------------------------------------------------|
D|-----------------------------------------------------------------|
A|-2---------------------------------------------------------------|
E|---------------------------------3-------------------------------|
   1 e + a 2 e + a 3 e + a 4 e + a 1 e + a 2 e + a 3 e + a 4 e + a

G|-----------------------------------------------------------------|
D|-----------------------------------------------------------------|
A|-5---5---5---5---5---5---5---5-5-4-4-4-4-4-4-4-4-4-4-4-4-4-4-4-4-|
E|-----------------------------------------------------------------|
   1 e + a 2 e + a 3 e + a 4 e + a 1 e + a 2 e + a 3 e + a 4 e + a

 Chorus 2:45
G|-----------------------------------------------------------------|
D|-----------------------------------------------------------------|
A|-----------------------------------------------------------------|
E|-----------------------------------------------------------------|
   1 e + a 2 e + a 3 e + a 4 e + a 1 e + a 2 e + a 3 e + a 4 e + a

G|-----------------------------------------------------------------|
D|---------------------------------------------------------------5-|
A|-------------------------------------------------5-7-7-7-----5---|
E|-5---5---5---5---7---7---7---7---3---3---3---3-----------4-7-----|
   1 e + a 2 e + a 3 e + a 4 e + a 1 e + a 2 e + a 3 e + a 4 e + a

G|-----------------------------------------------------------------|
D|---------------------------------------------------------7-5-4---|
A|-------------------------------------------------x-5-5-5-------5-|
E|-5---5---5---5---7---7---7---7---3---3---3---3-------------------|
   1 e + a 2 e + a 3 e + a 4 e + a 1 e + a 2 e + a 3 e + a 4 e + a

G|-----------------------------------------------------------------|
D|-----------------------------------------------/-5-5-5-5-5-4---4-|
A|-------------------------------------------------------------7---|
E|-5---5---5---5---7---7---7---7---3---3---3---3-------------------|
   1 e + a 2 e + a 3 e + a 4 e + a 1 e + a 2 e + a 3 e + a 4 e + a

  3:10
G|-----------------------------------------------------------------|
D|-----------------------------------------------------------------|
A|-------------------------------------------------x-5-5-5-5-5-5-7-|
E|-5---5---5---5---7---7---7---7---3---3---3---3-------------------|
   1 e + a 2 e + a 3 e + a 4 e + a 1 e + a 2 e + a 3 e + a 4 e + a

G|-----------------------------------------------------------------|
D|-----------------------------------------------/-5-5-5-5-5-4-5-7-|
A|-----------------------------------------------------------------|
E|-5---5---5---5---7---7---7---7---3---3---3---3-------------------|
   1 e + a 2 e + a 3 e + a 4 e + a 1 e + a 2 e + a 3 e + a 4 e + a

  Outro 3:23
G|-------------------------7---------------------------------9-----|
D|-9---9-\-------------4-----4---4-5-5-5-----------------7-----7---|
A|-----------------------------------------------------------------|
E|-----------------------------------------------------------------|
   1 e + a 2 e + a 3 e + a 4 e + a 1 e + a 2 e + a 3 e + a 4 e + a

G|-----7-6-----------------7---------------------------------------|
D|-7-9-----7-9---------4-----4-------------------------------------|
A|-----------------------------------------------------------------|
E|---------------------------------3-------------------------------|
   1 e + a 2 e + a 3 e + a 4 e + a 1 e + a 2 e + a 3 e + a 4 e + a

Tabbed By Jack Mills

            
            
Suggest correction
Creating personal tab
Creating personal tab
You can edit any tab online and save it as your Personal.

You can edit, replace or remove any tab part or add personal notes – all changes will be seen only by you.

Personal tabs can be accessed anytime from any device, even offline.
Learn more »
comments
print report bad tab
3 comments total.
+1 reply
jwulfy1 10 Oct 07, 2015 11:19 PM

dayum calum that's some improvement you've shown. great tab

0 reply
sxtvierose 63 Nov 06, 2015 08:49 PM, edited on November 16 2015, 01:31 am

i don't understand the x3 in the bridge? otherwise love the tab
update: i figured it out lol it starts right after the 10's

0 reply
Awesome_Girl 10 Feb 22, 2016 04:11 PM

This tab is amazing and pretty much all perfect from what I can tell but for the last 2 bars I think it should be :

G|---7-6-------------------7---------------------------------------|
D|-7-----7/9-----------4-----4-------------------------------------|
A|-----------------------------------------------------------------|
E|---------------------------------3-------------------------------|
1 e + a 2 e + a 3 e + a 4 e + a 1 e + a 2 e + a 3 e + a 4 e + a

guest
You may want to rate the tab now too:
select rating
Wanna post a correction for this tab? Suggest correction