Oops, an error
Loading. Please wait.

Jet Black Heart tab

version 1
version 1

Whole song

34,025 views 111 this week
6 commentsread comments
1 2 3 4 5
x 26
add to favorites
×
Save as Personal and add changes to this tab that will be seen only by you. Learn more ›
×
You can save this tab as Personal to edit and correct it or add notes. All changes will be seen only by you. Learn more »
launch autoscroll
font size
0
reset
how to read this tab
guitar tuner
edit
Autoscroll
slow
fast
+/-
esc
set tempo
stop
Author
-------------------------------------------------------------------------------
                             JET BLACK HEART - 5 Seconds Of Summer
-------------------------------------------------------------------------------
So yeah this is my first ever tab, I worked really hard on this and it took me ages to tab so I hope its at 
least kinda accurate :/ If u see anything that could be improved plz tell me cuz I just want to make 
this as close to the original as possible. Jet black heart is an awesome song, I love it and I hope this
tab does it justice! 

Also, even though I have tabbed this for two guitars does not mean you can't play this with only one 
guitar, just only play guitar part 1 or 2 on its own, simple :)

Tabbed by: @xouterspacelrh ;)

Tuning: Standard tuning :)


[Intro]

Guitar 1
e|--------10--------------10------|
B|-7-8-7-8---8-7-8-7-8-7-8---8-7-8|
G|--------------------------------|
D|--------------------------------| 
A|--------------------------------|
E|--------------------------------|


[Verse & Pre-chorus]

Guitar 1                                              Everybody's got their demons...
e|----------------------------------------------------------------|
B|7-8-7-8-7-8-7-8-7-8-7-8-7-8-7-8-7-8-7-8-7-8-7-8-7-8-7-8-7-8-7-8-|
G|----------------------------------------------------------------|
D|----------------------------------------------------------------| x7
A|----------------------------------------------------------------|
E|----------------------------------------------------------------|

Guitar 2                                              Everybody's got their demons...                   
e|----------------------------------------------------------------|
B|----------------------------------------------------------------|
G|----------------------------------------------------------------| 
D|4---4---4---4---4-----------------------------------------------| x7
A|2---2---2---2---2---4---4---4---5---5---5---5---5---7---7---7---|
E|--------------------2---2---2---3---3---3---3---3---5---5---5---|


[Chorus]
(Silence for the bit at start of chorus, guitar comes in on 'n' of underneath)

Guitar 2
 ...and there's a hurricane underneath it...
e|----------------------------------------------------------------------------------------------|
B|----------------------------------------------------------------------------------------------|
G|----------------------------------------------------------------------------------------------|
D|-------------------------------7---7---7---7---11--11--11--11---------------------------------| x2
A|-------------------------------5---5---5---5---9---9---9---9---9---9---9---9---9---9---9---9--|
E|---------------------------------------------------------------7---7---7---7---7---7---7---7--|
 ...these chemicals moving between us...
e|----------------------------------------------------------------------------------------------|
B|----------------------------------------------------------------------------------------------|
G|----------------------------------------------------------------------------------------------|
D|---------------------------7---7---7---7---11--11--11--11-------------------------------------|
A|---------------------------5---5---5---5---9---9---9---9---9---9---9---9---9---12---12---12---|
E|-----------------------------------------------------------7---7---7---7---7---10---10---10---|


[Pre-Verse]

Guitar 1                                                      Now I'm holding on for dear life...
e|------------------------------------------------------------------------------------------------|
B|7-8-7-8-7-8-7-8-7-8-7-8-7-8-7-8-7-8-7-8-7-8-7-8-7-8-7-8-7-8-7-8---------------------------------|
G|------------------------------------------------------------------------------------------------|
D|------------------------------------------------------------------------------------------------|
A|------------------------------------------------------------------------------------------------|
E|------------------------------------------------------------------------------------------------|


[Verse & Pre-Chorus]

Guitar 2
Now I'm holding on for dear life...
e|-------------------------------------------------------------------------------------|
B|-------------------------------------------------------------------------------------|
G|-------------------------------------------------------------------------------------| 
D|---------------------4---4---4---4---4-----------------------------------------------| x4
A|---------------------2---2---2---2---2---4---4---4---5---5---5---5---5---7---7---7---|
E|-----------------------------------------2---2---2---3---3---3---3---3---5---5---5---|

Guitar 1 (the 'x' means Palm mute in case u didn't know)  
Now that I'm broken...
e|-----------------------------------------|
B|-----------------------------------------|
G|-----------------------------------------|
D|-----------------------------------------| x8
A|-----------------------------------------|
E|-----------------x5-x7-x5-x7-x5-x7-x5-x7-|


[Chorus]

Guitar 2
Cause I've got a jet black heart...
e|-------------------------------------------------------------------|
B|-------------------------------------------------------------------|
G|-------------------------------------------------------------------|
D|----7---7---7---7---11--11--11--11---------------------------------| x3
A|----5---5---5---5---9---9---9---9---9---9---9---9---9---9---9---9--|
E|------------------------------------7---7---7---7---7---7---7---7--|
...these chemicals moving between us...
e|---------------------------------------------------------------------------------------------|
B|---------------------------------------------------------------------------------------------|
G|---------------------------------------------------------------------------------------------|
D|--------------------------7---7---7---7---11--11--11--11-------------------------------------|
A|--------------------------5---5---5---5---9---9---9---9---9---9---9---9---9---12---12---12---|
E|----------------------------------------------------------7---7---7---7---7---10---10---10---|


[Bridge]

Guitar 1
e|---------------------------------|
B|-7-8-7-8-7-8-7-8-7-8-7-8-7-8-7-8-|
G|---------------------------------|
D|---------------------------------| x12
A|---------------------------------|
E|---------------------------------|

Guitar 2 (Palm mute this)
As we turn into light...
e|------------------------------------------------------------------------------------------------|
B|------------------------------------------------------------------------------------------------|
G|------------------------------------------------------------------------------------------------|
D|------------------------------------------------------------------------------------------------|
A|---------------12---12---12---12---12---12---12---12---11--11--11--11--11--11--11--11-----------|
E|---------------10---10---10---10---10---10---10---10---9---9---9---9---9---9---9---9------------|


[Chorus]
(Silence for the bit at start of chorus, guitar comes in on 'n' of underneath)

Guitar 2
 ...and there's a hurricane underneath it...
e|----------------------------------------------------------------------------------------------|
B|----------------------------------------------------------------------------------------------|
G|----------------------------------------------------------------------------------------------|
D|-------------------------------7---7---7---7---11--11--11--11---------------------------------| x2
A|-------------------------------5---5---5---5---9---9---9---9---9---9---9---9---9---9---9---9--|
E|---------------------------------------------------------------7---7---7---7---7---7---7---7--|
 ...these chemicals moving between us...
e|----------------------------------------------------------------------------------------------|
B|----------------------------------------------------------------------------------------------|
G|----------------------------------------------------------------------------------------------|
D|---------------------------7---7---7---7---11--11--11--11-------------------------------------|
A|---------------------------5---5---5---5---9---9---9---9---9---9---9---9---9---16*hold note*--|
E|-----------------------------------------------------------7---7---7---7---7---14*hold note*--|


[Ending]

Guitar 2
        The blood in my veins...
e|----------------------------------------------------------------|
B|----------------------------------------------------------------|
G|----------------------------------------------------------------| 
D|4---4---4---4---------------------------------------------------| x2
A|2---2---2---2---4---4---4---4---5---5---5---5---7---7---7---7---|
E|----------------2---2---2---2---3---3---3---3---5---5---5---5---|

Guitar 1
(After all the singing and fancy stuff is done this guitar part comes in)
e|---------------------------------|
B|-7-8-7-8-7-8-7-8-7-8-7-8-7-8-7-8-|
G|---------------------------------|
D|---------------------------------| x5 (fades out)
A|---------------------------------|
E|---------------------------------|


************************************

| x   Mute note

************************************

Suggest correction
Creating personal tab
Creating personal tab
You can edit any tab online and save it as your Personal.

You can edit, replace or remove any tab part or add personal notes – all changes will be seen only by you.

Personal tabs can be accessed anytime from any device, even offline.
Learn more »
comments
print report bad tab
6 comments total. Showing first comments.
+1 reply
AriaElfania 38 Aug 28, 2015 10:38 AM

Thanx for the tab I love this song !!!!!!!!! :D

0 reply
charnetskik 33 Aug 31, 2015 12:10 PM

e|--------10--------------10------|
B|-7-8-7-8---8-7-8-7-8-7-8---8-7-8|
G|--------------------------------|
D|--------------------------------|
A|--------------------------------|
E|--------------------------------|

Hi, great tab! It's awesome one is up this quickly, and I know how long this must have taken, so all the love to you.

I just noticed there's a higher note that's played in the intro, so I put it as a 10 on e instead of a 7 on B :) Not sure if it's the same for the rest of the song, but at least for the intro this is what I hear.

0 reply
emmaburns 10 Oct 18, 2015 04:59 PM, edited at 09:00 pm

thanks! Jet Black heart is amazing. i will probs be playing this over and over again.

guest
You may want to rate the tab now too:
select rating
Wanna post a correction for this tab? Suggest correction