Oops, an error
Loading. Please wait.

Jet Black Heart tab

version 2
version 2

Whole song

4,954 views 27 this week
no commentswrite comment
1 2 3 4 5
x 4
add to favorites
×
Save as Personal and add changes to this tab that will be seen only by you. Learn more ›
×
You can save this tab as Personal to edit and correct it or add notes. All changes will be seen only by you. Learn more »
launch autoscroll
font size
0
reset
how to read this tab
guitar tuner
edit
Autoscroll
slow
fast
+/-
esc
set tempo
stop
JET BLACK HEART - 5 Seconds Of Summer
E-mail: a7xlucas@live.com
Tuning Drop D (DADGBe)

[Note] - the tab is for the version with the fade-in intro, the one with no drums. So there are a couple 
differences guitar-wise, so expect the music video version (the one with the drums in the intro) to have 
slightly different parts.

This was probably the easiest 5sos song to tab so far (at least for me), so that made tabbing it enjoyable 
lol. Not many guitar parts either. I kinda think this is the 2015 Wrapped Around Your Finger, has a similar 
vibe. I also thought that this would be the child if Wrapped and The Only Reason had a baby. Lol.
And yes, there is a ringing D note that plays throughout most of the song haha. Anyway enjoy!

My guitar cover on YouTube: https://www.youtube.com/watch?v=_NXXjWaI7OA

Guitar 1 - Luke Hemmings
Guitar 2 - Michael Clifford

/ or \ - slide to and from a note
* - palm mute
h - hammer-on

[Intro/verse]
Guitar 1  (clean tone)                                00:21 V          Back to distortion:
e|-10~---|--------10-------------10------|-----------|--------10-------------10------|--------------8x-|
B|----8~-|-7h8-7h8--8-7h8-7h8---8--8-7h8-|-----------|-7h8-7h8--8-7h8-7h8---8--8-7h8-|---------3-------|
G|-------|--------------------7----------|-(silence)-|--------------------7----------|-2-4-2-4---4-2-4-|
D|-------|-------------------------------|-----------|-------------------------------|-----------------|
A|-------|-------------------------------|-----------|-------------------------------|-----------------|
D|----4x-|----------------------------2x-|-----------|----------------------------4x-|-----------------|
                                                                                       * * * * * * * *     
Guitar 2
e|------------------------------------------|
B|------------------------------------------| Note: The above hammer-ons are optional, but the idea is
G|------------------------------------------|       that you play the notes as smooth as possible
D|-5~-------------------------------0~--x64-|
A|-5~--(Gradually increase volume)----------|
D|------------------------------------------|

[Chorus] (both guitars, only 1 guitar plays the high E string notes and x's):
e|-9h10~-9~~~~-------------------------------------------------------------|
B|-------------------------------------------------------------------------|
G|----------------------------------------------------7--------------------|
D|---------------xxxx-7777-9999-5-----7777-9999-5-----7-55-7777-9999-5-----|
A|---------------xxxx-7777-9999-5--x5-7777-9999-5--x5-5-55-7777-9999-5--x8-|
D|---------------xxxx-7777-9999-5-----7777-9999-5-------55-7777-9999-5-----|

[Preverse/Verse 2]
Guitar 1                                        V 1:30            Guitar 2            V 1:30
e|-----|-10------------------------------------|-----------------||------------------|---------|
B|-7h8-|---8-7h8-7h8-7h8-7h8-7h8-7h8-----------|---------3-------||------------------|---------|
G|-----|---------------------------.-(silence)-|-2-4-2-4---4-2-4-||------------------|---------|
D|-----|---------------------------------------|-----------------||-0~--x12--(pause)-|-0~--x32-|
A|-----|---------------------------------------|-----------------||------------------|---------|
D|--6x-|---------------------------------------|--------------8x-||------------------|---------|
                                                 * * * * * * * *   

Repeat:
Chorus - skip the notes on the high E string and play the 7-9-5 pattern instead

[Bridge]
Guitar 1                          V 2:45       Guitar 2   V 2:20
e|--------10-------------10------|-----------||-----------------------------------------5-----/7----------|
B|-7h8-7h8--8-7h8-7h8-7h8--8-7h8-|-----------||-----------------------------------------7--x6--7-x6-8--x8-|
G|-------------------------------|-(silence)-||-(silence)-7~---6~---4~------------------------------0-----|
D|-------------------------------|-----------||-----------7~---7~---4~-5~-7--x12-7--x12-------------------|
A|-------------------------------|-----------||-----------5~---4~---2~-5~-5------4------------------------|
D|---------------------------16x-|-----------||------------------------5~---------------------------------|
                                                                          *      *

[Chorus/Outro]
Guitar 1                      
e|-----------------------------------------3x-|--------10-------------10------|-----------------||
B|--------------------------------------------|-7h8-7h8--8-7h8-7h8---8--8-7h8-|-7~~~~~~~~~~~~~~-||
G|---------------------------------------7----|--------------------7----------|-----------------||
D|------7777-9999-5------7777-9999-5-----7-55-|-------------------------------|-----------------||
A|------7777-9999-5--x8--7777-9999-5--x5-5-55-|-------------------------------|-----------------||
D|------7777-9999-5------7777-9999-5-------55-|-------------------------------|-----------------||

Guitar 2
e|-----------------------------------------3x-|-------------------------------------------------||
B|--------------------------------------------|-------------------------------------------------||
G|---------------------------------------7----|-------------------------------------------------||
D|-xxxx-7777-9999-5------7777-9999-5-----7-55-|-0~--x15-0~~~~~~~~~~~~~~~~~~~~~~~~~~~~~~~~~~~~~~-||
A|-xxxx-7777-9999-5--x8--7777-9999-5--x5-5-55-|-------------------------------------------------||
D|-xxxx-7777-9999-5------7777-9999-5-------55-|-------------------------------------------------||

************************************

| x  Dead note
| ~  Vibrato
| h  Hammer-on
| /  Slide up

************************************

            
            
Suggest correction
Creating personal tab
Creating personal tab
You can edit any tab online and save it as your Personal.

You can edit, replace or remove any tab part or add personal notes – all changes will be seen only by you.

Personal tabs can be accessed anytime from any device, even offline.
Learn more »
comments
print report bad tab
guest
You may want to rate the tab now too:
select rating
Wanna post a correction for this tab? Suggest correction