Oops, an error
Loading. Please wait.

Kiss Me Kiss Me tab

version 3
version 3

Whole song

408 views 1 this week
no commentswrite comment
1 2 3 4 5
1 last vote to show rating
add to favorites
×
Save as Personal and add changes to this tab that will be seen only by you. Learn more ›
×
You can save this tab as Personal to edit and correct it or add notes. All changes will be seen only by you. Learn more »
launch autoscroll
font size
0
reset
how to read this tab
guitar tuner
edit
Autoscroll
slow
fast
+/-
esc
set tempo
stop
Author
Difficulty
---------------------------------------------------------------------------
                    KISS ME KISS ME - 5 Seconds Of Summer
-----------------------------------------------------------------------------
E-mail: a7xlucas@live.com

Tuning: Standard (EADGBe)

Check out my guitar cover for this song here!: https://www.youtube.com/watch?v=aNBIOxAqids

/ or \ - slide to and from a note
* - palm mute
===3=== - triplet
. - release (stop) note from ringing out after playing it
p - pull-off
~ - hold note

Intro:

Guitar 1
e|---------------------------------|----------------------------2x-|---------------------------|
B|---------------------------------|-------------------------------|---------------------------|
G|-5~-5----------------------------|-55----------------------------|-55------------------------|
D|-5~-5-------------3~-3--5~-5--xx-|-55-------------3~-3--5~-5--xx-|-55-------------3~-3--5~-5-|
A|-3~-3-------------3~-3--5~-5--xx-|-33-------------3~-3--5~-5--xx-|-33-------------3~-3--5~-5-|
E|------------------1~-1--3~-3--xx-|----------------1~-1--3~-3--xx-|----------------1~-1--3~-3-|

Guitar 2                                           
e|---------------------------------|----------------------------2x-|---------------------------|
B|---------------------------------|-------------------------------|---------------------------|
G|-5~-5----------------------------|-55----------------------------|-55------------------------|
D|-5~-5---2h3p2-0---3~-3--5~-5--xx-|-55---2h3p2-0---3~-3--5~-5--xx-|-55---2h3p2-0---3~-3--5~-5-|
A|-3~-3-----------3-3~-3--5~-5--xx-|-33-----------3-3~-3--5~-5--xx-|-33-----------3-3~-3--5~-5-|
E|------------------1~-1--3~-3--xx-|----------------1~-1--3~-3--xx-|----------------1~-1--3~-3-|
  
Note - I like to do 2h3p2p0 instead of 2h3p2 0 so it sounds smoother

Verse:

Guitar 1 V    V*************Play with lower volume*****************V
e|-------------------------------------------------------------------------------==3==---------|
B|---------------------------------------------------------------------------------------------|
G|----5~\-----9-9-9--55-----------101010-9-9--5~---------9-9-9--1010-12~---------10101010-9-9--|
D|-xx-5~\-----101010-55-5~--------101010-1010-5~---------101010-1010-12~---------10101010-1010-|
A|-xx-3~\-----7-7-7--33-5~--------8-8-8--7-7--3~---------7-7-7--8-8--10~---------8-8-8-8--7-7--|
E|-xx-------------------3~---------------------------------------------------------------------|

Guitar 1 cont'd
e|---------------------------------------------------------------------------------------------|
B|---------------------------------------------------------------------------------------------|
G|-5~\-----9-9-9--55-----------101010-9-9--5~---------9-9-9--1010-12~--------------------------|
D|-5~\-----101010-55-5~--------101010-1010-5~---------101010-1010-12~-------7-----9-----3~-----|
A|-3~\-----7-7-7--33-5~--------8-8-8--7-7--3~---------7-7-7--8-8--10~-------7--x8-9--x8-3~-----|
E|-------------------3~-----------------------------------------------------5-----7-----1~-----|
                                                                            *     *     
Guitar 2 (begins with the bar above)
e|----------------------------------------------------------------------|
B|----------------------------------------------------------------------|
G|-5~-------------------------------------------------------------------|
D|-5~5-------------5---------------------------3~----\\\----------------|
A|-3~3--x14-5------3--x16-5--------(silence)---3~----\\\--(pickscrape)--|
E|----------3--x16--------3--x16---------------1~----\\\----------------|
     *      *      *      *
Chorus:

Guitar 1
e|--------%--------------------------------------------------------|
B|-----------------------------------------------------------------|
G|-5-------------7------10------------5-------------7------10------|
D|-5--x16-5------7--x16-10--x12-------5--x16-5------7--x16-10--x16-|
A|-3------5--x16-5------8-----------0-3------5--x16-5------8-------|
E|--------3---------------------1-3----------3---------------------|
              
Guitar 2                                                      
e|-8---|-7---|-8---|-5---|-----5-8~---|-8---|-7---|-8---|-5---|-------------5-| 
B|---8-|---8-|---6-|---8-|-6-8------8-|---8-|---8-|---6-|---8-|-(pause)-6-8---| 
G|-----|-----|-----|-----|------------|-----|-----|-----|-----|---------------| 
D|-----|-%---|-----|-----|------------|-----|-----|-----|-----|---------------|
A|-----|-----|-----|-----|------------|-----|-----|-----|-----|---------------|
E|--8x-|--8x-|--8x-|--x6-|------------|--7x-|--8x-|--8x-|--8x-|---------------|

Re-intro:

Guitar 1
e|-----------------------------------------------------------|
B|-----------------------------------------------------------|
G|-5~-5----------------------------55------------------------|
D|-5~-5-------------3~-3--5~-5--xx-55-------------3~-3--5~-5-|
A|-3~-3-------------3~-3--5~-5--xx-33-------------3~-3--5~-5-|
E|------------------1~-1--3~-3--xx----------------1~-1--3~-3-|

Guitar 2
e|-8~--------------------------------------------------------|
B|-----------------------------------------------------------|
G|---------------------------------55------------------------|
D|-------2h3p2-0----3~-3--5~-5--xx-55---2h3p2-0---3~-3--5~-5-|
A|---------------3~-3~-3--5~-5--xx-33-----------3-3~-3--5~-5-|
E|------------------1~-1--3~-3--xx----------------1~-1--3~-3-|

Verse:

Guitar 1
e|-------------------------------------------------------------------------------==3==---------|
B|---------------------------------------------------------------------------------------------|
G|----5~\-----9-9-9--55-----------101010-9-9--5~---------9-9-9--1010-12~---------10101010-9-9--|
D|-xx-5~\-----101010-55-5~--------101010-1010-5~---------101010-1010-12~---------10101010-1010-|
A|-xx-3~\-----7-7-7--33-5~--------8-8-8--7-7--3~---------7-7-7--8-8--10~---------8-8-8-8--7-7--|
E|-xx-------------------3~---------------------------------------------------------------------|

Guitar 2
e|-----------------------------------------------------------------------/88~-7~-555-3~-|
B|--------------------------------------------------------------------------------------| 
G|---------------------------(silence)-----------------------------------/55~-4~-222-0~-|
D|--------------------------------------------------------------------------------------|
A|--------------------------------------------------------------------------------------|
E|--------------------------------------------------------------------------------------|
                    This is some electronic part you can hear in the background^
Guitar 1 
e|-------------------------------------------------------------------------------------------------|
B|-------------------------------------------------------------------------------------------------|
G|-5~\-----9-9-9--55-----------101010-9-9--5~---------9-9-9--1010-12~------------------------------|
D|-5~\-----101010-55-5~--------101010-1010-5~---------101010-1010-12~-------7-----9-----3~-3~-3~---|
A|-3~\-----7-7-7--33-5~--------8-8-8--7-7--3~---------7-7-7--8-8--10~-------7--x8-9--x8-3~-3~-3~---|
E|-------------------3~-----------------------------------------------------5-----7-----1~-1~-1~---|
                                                                            *     *     
Guitar 2
e|--------------------------------------------------------|
B|--------------------------------------------------------|
G|-5~-----------------------------------------------------|
D|-5~5-------------5---------------------------3~-3~-3~---|
A|-3~3--x14-5------3--x16-5--------(silence)---3~-3~-3~---|
E|----------3--x16--------3--x16---------------1~-1~-1~---|
     *      *      *      *
Repeat:
Chorus - For Guitar 2, don't play the last bar

Bridge (Guitar 1 only - clean tone):
e|--13~------12~---------------------------------------------|
B|--13~------12~---------------------------------------------| The notes in brackets are optional
G|--14~------13~---------------------------------------------|
D|-(15)~----(14)~--------------------------------------------|
A|-----------------------------------------------------------|
E|-----------------------------------------------------------|

Cool breakdown part (the riff almost everyone is here for lol):

Guitar 1
e|------------------------------------------------------------------------------------------------------|
B|------------------------------------------------------------------------------------------------------|
G|------------5~----------5~/7~-------4~----------------------5~----------5~/7~-------4~----------------|
D|------3~3~3----3~-3~3~3-------2~2~2----2~-2~2~2-9~\6~-3~3~3----3~-3~3~3-------2~2~2----2~-2~2~2-9~\5~-|
A|------3~3~3-------3~3~3-3~/5~-2~2~2-------2~2~2-------3~3~3-------3~3~3-3~/5~-2~2~2-------2~2~2-------|
E|-/13\-1~1~1-------1~1~1-------0~0~0-------0~0~0-7~\4~-1~1~1-------1~1~1-------0~0~0-------0~0~0-7~\3~-|

Guitar 2
e|------------------------------------------------------------------------------------------------------|
B|------------------------------------------------------------------------------------------------------|
G|------------------------------------------------------------------------------------------------------|
D|------3~3~3-------3~3~3-------2~2~2-------2~2~2-------3~3~3-------3~3~3-------2~2~2-------2~2~2-------|
A|------3~3~3-------3~3~3-------2~2~2-------2~2~2-------3~3~3-------3~3~3-------2~2~2-------2~2~2-------|
E|------1~1~1-------1~1~1-------0~0~0-------0~0~0-------1~1~1-------1~1~1-------0~0~0-------0~0~0-------|

To give those single notes in guitar 1 a more distorted feel, pinch harmonic them slightly (search up the 
technique if you're not sure what it is)

Repeat:
Chorus - start at the % symbol
Intro

            
            
Suggest correction
Creating personal tab
Creating personal tab
You can edit any tab online and save it as your Personal.

You can edit, replace or remove any tab part or add personal notes – all changes will be seen only by you.

Personal tabs can be accessed anytime from any device, even offline.
Learn more »
Give kudos to tab author, rate the tab!
1 2 3 4 5
comments
print report bad tab
guest
You may want to rate the tab now too:
select rating
Wanna post a correction for this tab? Suggest correction