Oops, an error
Loading. Please wait.

Long Way Home Tab

version 1
version 1

Whole song

Interactive

100 views 12 this week
no commentswrite comment
1 2 3 4 5
1 last vote to show rating
add to favorites
launch autoscroll
font size
0
reset
how to read this tab
guitar tuner
Autoscroll
slow
fast
+/-
esc
set tempo
stop
Help us to improve Ultimate-Guitar.com Take our survey!
×
Author
Difficulty
novice
[Intro] (No Guitar)

[Verse] Kicking back...

e|---------------------------------------------------------------------------|
B|---------------------------------------------------------------------------|
G|----------4~------8~------6~------4~---------------------------------------|
D|--4~------4~------8~------6~------4~---------------------------------------|
A|--4~------2~------6~------4~------2~---------------------------------------|
E|--2~-----------------------------------------------------------------------|

[Pre-Chorus] We know...
e|--11---11----9---9----7---7------------------------------------------------|
B|----12---12----7---7----7---7----------------------------------------------|
G|---------------------------------------------------------------------------|
D|---------------------------------------------------------------------------|
A|---------------------------------------------------------------------------|
E|---------------------------------------------------------------------------|


[Chorus]
 So we're taking.../'Cause I dont wanna...
e|--------------|------------|-----------------------------------------------|
B|--------------|------------|-----------------------------------------------|
G|--------------|6-6-6-6-6-x-|4-4-4-4-4-x-4-4-4-4-4--------------------------|
D|--4-4-4-4-4-x-|6-6-6-6-6-x-|4-4-4-4-4-x-4-4-4-4-4--------------------------|
A|--4-4-4-4-4-x-|4-4-4-4-4-x-|2-2-2-2-2-x-2-2-2-2-2--------------------------|
E|--2-2-2-2-2-x-|------------|-----------------------------------------------|

 I wanna get...
e|------------|----------|---------------------------------------------------|
B|------------|----------|---------------------------------------------------|
G|--8-8-8-8-8-|6-6-6-6-6-|3-3-3-3/4-4-4-4-4----------------------------------|
D|--8-8-8-8-8-|6-6-6-6-6-|3-3-3-3/4-4-4-4-4----------------------------------|
A|--6-6-6-6-6-|4-4-4-4-4-|1-1-1-1/2-2-2-2-2----------------------------------|
E|------------|----------|---------------------------------------------------|

 So we're taking...
e|--------------|------------|-----------------------------------------------|
B|--------------|------------|-----------------------------------------------|
G|--------------|6-6-6-6-6-x-|4-4-4-4-4-x-4-4-4-4-4--------------------------|
D|--4-4-4-4-4-x-|6-6-6-6-6-x-|4-4-4-4-4-x-4-4-4-4-4--------------------------|
A|--4-4-4-4-4-x-|4-4-4-4-4-x-|2-2-2-2-2-x-2-2-2-2-2--------------------------|
E|--2-2-2-2-2-x-|------------|-----------------------------------------------|

 Tonight...
e|--11----11----|9----9---|7----7----7----7----------------------------------|
B|------12----12|---7----7|---7----7----7----7--x2---------------------------|
G|--------------|---------|--------------------------------------------------|
D|--------------|---------|--------------------------------------------------|
A|--------------|---------|--------------------------------------------------|
E|--------------|---------|--------------------------------------------------|

[Verse] Now we're stuck... (guitar is really faint)
e|--------------------------------|---------|--------------------------------|
B|--7-7-7-7-7-7-7-7-7/12-12-12-12-|9-9h11p9-|3-3-3-3--------------3-3-3-3----|
G|--------------------------------|---------|--------10-10-10-10----------x2-|
D|--------------------------------|---------|--------------------------------|
A|--------------------------------|---------|--------------------------------|
E|--------------------------------|---------|--------------------------------|

[Pre-Chorus] We know...
e|--11----11-----9----9-----7----7-------------------------------------------|
B|-----12----12-----7----7-----7----7----------------------------------------|
G|---------------------------------------------------------------------------|
D|---------------------------------------------------------------------------|
A|---------------------------------------------------------------------------|
E|---------------------------------------------------------------------------|


[Chorus]
 So we're taking.../'Cause I dont wanna...
e|--------------|------------|-----------------------------------------------|
B|--------------|------------|-----------------------------------------------|
G|--------------|6-6-6-6-6-x-|4-4-4-4-4-x--4-4-4-4-4-------------------------|
D|--4-4-4-4-4-x-|6-6-6-6-6-x-|4-4-4-4-4-x--4-4-4-4-4-------------------------|
A|--4-4-4-4-4-x-|4-4-4-4-4-x-|2-2-2-2-2-x--2-2-2-2-2-------------------------|
E|--2-2-2-2-2-x-|------------|-----------------------------------------------|

 I wanna get...
e|------------|----------|---------------------------------------------------|
B|------------|----------|---------------------------------------------------|
G|--8-8-8-8-8-|6-6-6-6-6-|3-3-3-3/4-4-4-4-4----------------------------------|
D|--8-8-8-8-8-|6-6-6-6-6-|3-3-3-3/4-4-4-4-4----------------------------------|
A|--6-6-6-6-6-|4-4-4-4-4-|1-1-1-1/2-2-2-2-2----------------------------------|
E|------------|----------|---------------------------------------------------|

 So we're taking...
e|--------------|------------|-----------------------------------------------|
B|--------------|------------|-----------------------------------------------|
G|--------------|6-6-6-6-6-x-|4-4-4-4-4-4-4-4--------------------------------|
D|--4-4-4-4-4-x-|6-6-6-6-6-x-|4-4-4-4-4-4-4-4--------------------------------|
A|--4-4-4-4-4-x-|4-4-4-4-4-x-|2-2-2-2-2-2-2-2--------------------------------|
E|--2-2-2-2-2-x-|------------|*-*-*-*-*-*-*----------------------------------|
                                  (PM)

 [Bridge] Hittin' every red light...
e|---------------------------------------------------------------------------|
B|---------------------------------------------------------------------------|
G|--8-8--3-3--4-4----------6-------------------------------------------------|
D|--8-8--3-3--4-4--4-4-4---6-------------------------------------------------|
A|--6-6--1-1--2-2--4-4-4---4-------------------------------------------------|
E|-----------------2-2-2-----------------------------------------------------|
 
 Green Days on...
e|---------------------------------------------------------------------------|
B|---------------------------------------------------------------------------|
G|--8-8--3-3--4-4-----------6-6-6-6------------------------------------------|
D|--8-8--3-3--4-4--4-4-4-4--6-6-6-6------------------------------------------|
A|--6-6--1-1--2-2--4-4-4-4--4-4-4-4------------------------------------------|
E|-----------------2-2-2-2---------------------------------------------------|

 And everything is all right...
e|---------------------------------------------------------------------------|
B|---------------------------------------------------------------------------|
G|--8-8--3-3--4-4----------6-------------------------------------------------|
D|--8-8--3-3--4-4--4-4-4---6-------------------------------------------------|
A|--6-6--1-1--2-2--4-4-4---4-------------------------------------------------|
E|-----------------2-2-2-----------------------------------------------------|

 We're just taking...
e|---------------------------------------------------------------------------|
B|---------------------------------------------------------------------------|
G|--8-8--3-3--4-4-4-4-4-4-4-4------------------------------------------------|
D|--8-8--3-3--4-4-4-4-4-4-4-4------------------------------------------------|
A|--6-6--1-1--2-2-2-2-2-2-2-2------------------------------------------------|
E|--------------*-*-*-*-*-*-*------------------------------------------------|
                    (PM)


[Chorus] So we're taking...
e|---------------------------------------------------------------------------|
B|---------------------------------------------------------------------------|
G|-----------6--------4------------------------------------------------------|
D|--4--------6--------4------------------------------------------------------|
A|--4--------4--------2------------------------------------------------------|
E|--2------------------------------------------------------------------------|

 Cause I dont wanna...
e|---------------------------------------------------------------------------|
B|---------------------------------------------------------------------------|
G|-----------6--------4\---x-x------------------------------------------------|
D|--4--------6--------4\---x-x------------------------------------------------|
A|--4--------4--------2\---x-x------------------------------------------------|
E|--2------------------------------------------------------------------------|

 I wanna get...
e|------------|----------|---------------------------------------------------|
B|------------|----------|---------------------------------------------------|
G|--8-8-8-8-8-|6-6-6-6-6-|3-3-3-3/4-4-4-4-4----------------------------------|
D|--8-8-8-8-8-|6-6-6-6-6-|3-3-3-3/4-4-4-4-4----------------------------------|
A|--6-6-6-6-6-|4-4-4-4-4-|1-1-1-1/2-2-2-2-2----------------------------------|
E|------------|----------|---------------------------------------------------|

 So we're taking...
e|--------------|------------|-----------------------------------------------|
B|--------------|------------|-----------------------------------------------|
G|--------------|6-6-6-6-6-x-|4-4-4-4-4-x-4-4-4-4-4--------------------------|
D|--4-4-4-4-4-x-|6-6-6-6-6-x-|4-4-4-4-4-x-4-4-4-4-4--------------------------|
A|--4-4-4-4-4-x-|4-4-4-4-4-x-|2-2-2-2-2-x-2-2-2-2-2--------------------------|
E|--2-2-2-2-2-x-|------------|-----------------------------------------------|

 Hittin' every red light...
e|--------------|------------|-----------------------------------------------|
B|--------------|------------|-----------------------------------------------|
G|--------------|6-6-6-6-6-x-|4-4-4-4-4-x-4-4-4-4-4--------------------------|
D|--4-4-4-4-4-x-|6-6-6-6-6-x-|4-4-4-4-4-x-4-4-4-4-4--------------------------|
A|--4-4-4-4-4-x-|4-4-4-4-4-x-|2-2-2-2-2-x-2-2-2-2-2--------------------------|
E|--2-2-2-2-2-x-|------------|-----------------------------------------------|

 Green day's...
e|--------------|------------|-----------------------------------------------|
B|--------------|------------|-----------------------------------------------|
G|--------------|6-6-6-6-6-x-|4-4-4-4-4-x-4=4=4=4=4--------------------------|
D|--4-4-4-4-4-x-|6-6-6-6-6-x-|4-4-4-4-4-x-4-4-4-4-4--------------------------|
A|--4-4-4-4-4-x-|4-4-4-4-4-x-|2-2-2-2-2-x-2-2-2-2-2--------------------------|
E|--2-2-2-2-2-x-|------------|-----------------------------------------------|

 And everything is all right...
e|--------------|------------|-----------------------------------------------|
B|--------------|------------|-----------------------------------------------|
G|--------------|6-6-6-6-6-x-|4-4-4-4-4-x-4-4-4-4-4--------------------------|
D|--4-4-4-4-4-x-|6-6-6-6-6-x-|4-4-4-4-4-x-4-4-4-4-4--------------------------|
A|--4-4-4-4-4-x-|4-4-4-4-4-x-|2-2-2-2-2-x-2-2-2-2-2--------------------------|
E|--2-2-2-2-2-x-|------------|-----------------------------------------------|

 We're just taking...
e|--------------|------------|-----------------------------------------------|
B|--------------|------------|-----------------------------------------------|
G|--------------|6-6-6-6-6-x-|4-4-4-4-4-4-4-4--------------------------------|
D|--4-4-4-4-4-x-|6-6-6-6-6-x-|4-4-4-4-4-4-4-4--------------------------------|
A|--4-4-4-4-4-x-|4-4-4-4-4-x-|2-2-2-2-2-2-2-2--------------------------------|
E|--2-2-2-2-2-x-|------------|--*-*-*-*-*-*-*--------------------------------|
                                  (PM)

[Ending] We're taking...
e|--11----11----|9----9----|7----7----7----7---------------------------------|
B|-----12----12-|---7----7-|---7----7----7----7------------------------------|
G|--------------|----------|-------------------------------------------------|
D|--------------|----------|-------------------------------------------------|
A|--------------|----------|-------------------------------------------------|
E|--------------|----------|-------------------------------------------------|

 We're taking...
e|--11----11----|9----9----|7----7----7----7-----|-9~------------------------|
B|-----12----12-|---7----7-|---7----7----7----7--|-7~------------------------|
G|--------------|----------|---------------------|---------------------------|
D|--------------|----------|---------------------|---------------------------|
A|--------------|----------|---------------------|---------------------------|
E|--------------|----------|---------------------|---------------------------|


************************************

| x   Dead note
| h   Hammer-on
| p   Pull-off
| /   Slide up
| \   Slide down
| PM  Palm mute

************************************
Suggest correction
Give kudos to tab author, rate the tab!
1 2 3 4 5
comments
print report bad tab
guest
You may want to rate the tab now too:
select rating
Wanna post a correction for this tab? Suggest correction