Oops, an error
Loading. Please wait.

Lost In Reality tab

1,391 views 6 this week
no commentswrite comment
1 2 3 4 5
x 7
add to favorites
×
Save as Personal and add changes to this tab that will be seen only by you. Learn more ›
×
You can save this tab as Personal to edit and correct it or add notes. All changes will be seen only by you. Learn more »
launch autoscroll
font size
0
reset
how to read this tab
guitar tuner
edit
Autoscroll
slow
fast
+/-
esc
set tempo
stop
-----------------------------------------------------------------------------
                 LOST IN REALITY - 5 Seconds Of Summer
-----------------------------------------------------------------------------
Tuning: Drop D (DADGBe)

Guitar 1 - Luke Hemmings
Guitar 2 - Michael Clifford

Fun song to play here, but it's one of their trickiest so far, because of the slides in the
intro/guitar solo and the fast run that's in the guitar solo as well. Not to mention I tabbed that cool
synth going on in the background for more advanced players, where there's some tricky tapping stuff. Enjoy!

Check out my guitar cover on YouTube!: https://www.youtube.com/watch?v=qrWSQVO29_c

Intro:

Guitar 1 (an octave pedal may be used here though so if this is too hard to play just play G string notes)
e|---------------------------------------------------------------------------------------------------|
B|---------------------------------------------------------------------------------------------------|
G|-9-x-9\4-9/11\9~--9/11/13/14\13\11\9---11-x-11\9/11/13\11~---9/11/13/14\13\11\9--9--9\6/9/11\9~-9~-|
D|---x--------------------------------------x--------------------------------------------------------|
A|-7-x-7\2-7/-9\7~--7/-9/11/12\11\-9\7----9-x--9\7/-9/11\-9~---7/-9/11/12\11\-9\7--7--7\4/7/-9\7~-7~-|
D|---------------------------------------------------------------------------------------------------|

Guitar 1 cont'd
e|---------------------------------------------------------|
B|---------------------------------------------------------|
G|-9\6/9/11\9~---6~/9~/14~\13~--6~-9/14~\13~---------------|
D|---------------------------------------------------------|
A|-7\4/7/-9\7~---4~/7~/12~\11~--4~-7/12~\11~---------------|
D|---------------------------------------------------------|

Guitar 2
e|------------------------------------------------------------|
B|------------------------------------------------------------|
G|-9------4------6-------------------------.------.-----------|
D|-9--x16-4--x16-6--x13-6-6~-7~----------7-7--7-7~------------|
A|-7------2------4------6-6~-7~--(pause)-7-7--7-7~------------|
D|----------------------6-6~-7~----------7-7--7-7~------------|

Verse:

Guitar 1 (a bit quieter than normal), no Guitar 2
e|----------------------------------------------4-----4---4--4444-.--.-----.---.-----.-|
B|-.--.-----.---.-------.--.-----.---.-------.--.-----.---.-------2--2--2222--22--2222-|
G|-9--9--9999--99--9999-8--8--8888--88--8888-6--6--6666--66--6666-2--2--2222--22--2222-|
D|-9--9--9999--99--9999-9--9--9999--99--9999-6--6--6666--66--6666-2--2--2222--22--2222-|
A|-7--7--7777--77--7777-6--6--6666--66--6666-4--4--4444--44--4444-0--0--0000--00--0000-|
D|-------------------------------------------------------------------------------------|

Guitar 1 cont'd (increase loudness back to normal)
e|-----------------------.--.-----.---.-----.----4-----4---4--4444-.--.-----.---.-----.-|
B|-.--.-----.---.--------4--4--4444--44--4444-.--.-----.---.-------2--2--2222--22--2222-|
G|-9--9--9999--99--9999--4--4--4444--44--4444-6--6--6666--66--6666-2--2--2222--22--2222-|
D|-9--9--9999--99--9999--4--4--4444--44--4444-6--6--6666--66--6666-2--2--2222--22--2222-|
A|-7--7--7777--77--7777--6--6--6666--66--6666-4--4--4444--44--4444-0--0--0000--00--0000-|
D|--------------------------------------------------------------------------------------|
                        ^Elevems not ones
Chorus:

Guitar 1, 2x
e|--------------------------------------------------------|
B|-9------4------4----------------------------------------|
G|-9------4------6-------------------------.------.-------|
D|-9--x16-4--x16-6--x13-6-6~-7~\---------7-7--7-7~--------|
A|-7------2------4------6-6~-7~\-(pause)-7-7--7-7~(pause)-| Tapping part below - really only for
D|----------------------6-6~-7~\---------7-7--7-7~--------| intermediate/expert players, sounds really cool

Guitar 2   
e|----------------------------------------------------|-7p4-t12p4h-|-16\12p7p4-|-7p4-t11p4-|-14\11p7p4-|
B|----------------------------------------------------|------------|-----------|-----------|-----------|
G|----x16-4------6-------------------------.----------|------------|-----------|-----------|-----------|
D|-2------4--x16-6--x13-6-6~-7~\---------7-7----------|------------|-----------|-----------|-----------|
A|-2------2------4------6-6~-7~\-(pause)-7-7--(pause)-|------------|-----------|-----------|-----------|
D|-2--------------------6-6~-7~\---------7-7----------|---------3x-|-----------|--------3x-|-----------|
                                                  ^synth part transcribed to guitar, it's optional to play
Guitar 2 cont'd
e|-9p4-t12p4-|---9-11-12--------------------------------|
B|-----------|-9-------------------------------.--------|
G|-----------|-----------------------6-6---6-6~---------|
D|-----------|-----------7~\--------------------(pause)-|
A|-----------|-----------7~\-(pause)-4-4---4-4~---------|
D|--------3x-|-----------7~\----------------------------|

Break/Verse 2: (Guitar 1, no Guitar 2)
e|-------------------2x-|-.--.-----.---.----------4-----4---4--4444-.--.-----.---.-----.-|
B|-.--.-----.---.-------|-0--0--0000--00--0000-.--.-----.---.-------2--2--2222--22--2222-|
G|-9--9--9999--99--9999-|-1--1--1111--11--1111-6--6--6666--66--6666-2--2--2222--22--2222-|
D|-9--9--9999--99--9999-|----------------------6--6--6666--66--6666-2--2--2222--22--2222-|
A|-7--7--7777--77--7777-|-2--2--2222--22--2222-4--4--4444--44--4444-0--0--0000--00--0000-|
D|----------------------|----------------------------------------------------------------|

Guitar 1 cont'd (increase loudness back to normal)
e|----------------------.--.-----.---.-----.----4-----4---4--4444-.--.-----.----------|
B|-.--.-----.---.-------4--4--4444--44--4444-.--.-----.---.-------2--2--2222----------|
G|-9--9--9999--99--9999-4--4--4444--44--4444-6--6--6666--66--6666-2--2--2222--(pause)-|
D|-9--9--9999--99--9999-4--4--4444--44--4444-6--6--6666--66--6666-2--2--2222----------|
A|-7--7--7777--77--7777-6--6--6666--66--6666-4--4--4444--44--4444-0--0--0000----------|
D|------------------------------------------------------------------------------------|

Repeat:
Chorus - for guitar 1 and 2 skip the last 2 chords and pause instead

Bridge/Guitar Solo:

Guitar 1:
e|------------------------------------------------------------------------9-11-12-/17T--16T--12T-------|
B|-----------------------------------------------------------------9-10-12------------------------14T--|
G|-9-x-9\4-9/11\9~--9/11/13/14\13\11\9---11-x-11\9/11/13\11~---9-11------------------------------------|
D|---x--------------------------------------x----------------------------------------------------------|
A|-7-x-7\2-7/-9\7~--7/-9/11/12\11\-9\7----9-x--9\7/-9/11\-9~-------------------------------------------|
D|-----------------------------------------------------------------------------------------------------|

Guitar 1 cont'd                                                     2:54 V
e|-17T--16T--12T-------12T-------12T--14T--15T--14T--17T--22T--(silence)--9~--5~/12\5~/12\5/17~-|
B|----------------14T-------13T-----------------------------------------------------------------|
G|----------------------------------------------------------------------------------------------|
D|----------------------------------------------------------------------------------------------|
A|----------------------------------------------------------------------------------------------|
D|----------------------------------------------------------------------------------------------|
                                                                          ^This part is hard to hear
Guitar 2:
e|----------------------------------------------------------------------------------------------------|
B|----------------------------------------------------------------------------------------------------|
G|-9------7------2------5-----/7-----------------------------------------9---9-9-----9---9---9-9-9-9--|
D|-9--x16-7------2--x16-5--x8-/7--x8-----9---9-9---9-----9---9-9-9-9-----9---9-9-----9---9---9-9-9-9--|
A|-7------5--x16-0------3-----/5-----7-7-7-7-7-7-7-7-7-7-7-7-7-7-7-7-7-7-7-7-7-7-7-7-7-7-7-7-7-7-7-7--|
D|--------0-------------------------------------------------------------------------------------------|
           Gradually increase volume^* *   *     *   * *   *         * *   *     * *   *   *
Guitar 2 cont'd
e|----------------------------------------------------------------------------------------------------|
B|----------------------------------------------------------------------------------------------------|
G|-----8---8-8---8-----8---8-8-8-8-----6---6-6---6-----6---6------------------------------------------|
D|-----9---9-9---9-----9---9-9-9-9-----6---6-6---6-----6---6-6-6-6-----7-----7---11~------------------|
A|-6-6-6-6-6-6-6-6-6-6-6-6-6-6-6-6-4-4-4-4-4-4-4-4-4-4-4-4-4-6-6-6-----7-----7---7~-------------------|
D|-----------------------------------------------------------6-6-6-7-7-7-7-7-7-7-7~-------------------|
   * *   *     *   * *   *         * *   *     *   * *   *         * *   * *   *
Final Chorus:

Guitar 1
e|-----------------------------------------------------------------------------------------------------0~-|
B|-9------4------5-------------------------------------------------------------------------------------0~-|
G|-9------4------6--------------------.------.--------9------4------6-------------------------.----.---9~-|
D|-9--x16-4--x16-6--x16-7~\---------7-7--7-7~---------9--x14-4--x16-6--x13-6-6~-7~\---------7-7--7-7~--9~-|
A|-7------2------4------7~\-(pause)-7-7--7-7~-(pause)-7------2------4------6-6~-7~\-(pause)-7-7--7-7~--7~-|
D|----------------------7~\---------7-7--7-7~------------------------------6-6~-7~\---------7-7--7-7~-----|

Guitar 2   
e|-----------------------------------------------------t12p4h-|-7p4-t12p4h-|-16\12p7p4-|-7p4-t11p4-|
B|------------------------------------------------------------|------------|-----------|-----------|
G|----x16-4------6-------------------------.------------------|------------|-----------|-----------|
D|-2------4--x16-6--x13-6-6~-7~\---------7-7------------------|------------|-----------|-----------|
A|-2------2------4-----------7~\-(pause)-7-7---(pause)--------|------------|-----------|-----------|
D|-2--------------------6-6~-7~\---------7-7------------------|---------2x-|-----------|--------3x-|
                                                  ^synth part transcribed to guitar, it's optional to play
Guitar 2 cont'd
e|-14\11p7p4-|-9p4-t12p4-|---9-11-12--------------------------------|
B|-----------|-----------|-9----------------------------.-----------|
G|-----------|-----------|-----------------------6-6---6-6~---------|
D|-----------|-----------|-----------7~\---------------------2~-----|
A|-----------|-----------|-----------7~\-(pause)-4-4---4-4~--2~-----|
D|-----------|--------3x-|-----------7~\---------------------2~-----|
____________________________________________________________________________________________
x - mute note
h - hammer on
p - pull off
/ or \ - slide from one note to the next
. - release fretting hand after playing note
t - tapping
T - tremolo pick (pick very fast)

            
            
Suggest correction
Creating personal tab
Creating personal tab
You can edit any tab online and save it as your Personal.

You can edit, replace or remove any tab part or add personal notes – all changes will be seen only by you.

Personal tabs can be accessed anytime from any device, even offline.
Learn more »
comments
print report bad tab
guest
You may want to rate the tab now too:
select rating
Wanna post a correction for this tab? Suggest correction