Oops, an error
Loading. Please wait.

Money tab

2,165 views 6 this week
no commentswrite comment
1 2 3 4 5
x 3
add to favorites
×
Save as Personal and add changes to this tab that will be seen only by you. Learn more ›
×
You can save this tab as Personal to edit and correct it or add notes. All changes will be seen only by you. Learn more »
launch autoscroll
font size
0
reset
how to read this tab
guitar tuner
edit
Autoscroll
slow
fast
+/-
esc
set tempo
stop
-----------------------------------------------------------------------------
                            MONEY - 5 Seconds Of Summer
-----------------------------------------------------------------------------
E-mail: a7xlucas@live.com

Tuning: Drop D (DADGBe)

Guitar 1 - Luke Hemmings
Guitar 2 - Michael Clifford

Short song here, driven by one main riff mostly. Fun song to play, enjoy! Here's the link to my guitar
cover on YouTube: https://www.youtube.com/watch?v=y5axZto4Hvo

Intro/Verse:

Guitar 1
e|------------------2x-|------------------8x-|----------------------------------|
B|---------------------|---------------------|----------------------------------|
G|------.------.-------|---------------------|-2~-------------------------------|
D|-000000---7777-----.-|------.------.-----.-|-2~-------------------------------|
A|-000000---7777---555-|-000000---7777---555-|-0~-------------------------------|
D|-000000---7777---555-|-000000---7777---555-|----------------------------------|
                         ******   ****   ***
Guitar 2
e|-------------------------------------------------------|-------------------2x-|
B|-------------------------------------------------------|-------------7---10~\-|
G|-11-12-11-9-77---9999--11-11-11--777777--9999-x-(7.8)~-|-----------7---7------|
D|----------------------------------------------x--------|-(silence)------------|
A|--9-10--9-7-55---7777--9--9--9---555555--7777----------|----------------------|
D|---------------------------------000000--7777----------|----------------------|
                                                                   * * *
Guitar 2 cont'd
e|-------------------------------2x-|-------------------------------------------|
B|-7---7---7---7---5---5---8---8----|-------------------------------------------|
G|---7---7---7---7---6---6---7---7--|-9~----------------------6/7~-9~-----------|
D|----------------------------------|-------------------------------------------|
A|----------------------------------|-7~----------------------4/5~-7~-----------|
D|----------------------------------|-------------------------------------------|
     *   *   *   *   *   *   *   *

Chorus:

Guitar 1
e|--------------------4x-|----------------------|
B|-----------------------|----------------------|
G|-----.-----------------|----------------------|
D|-00000-x-0~-7~-7~-x-5~-|-9999-7777-5-----7777-|
A|-00000-x-0~-7~-7~-x-5~-|-9999-7777-5--x8-7777-|
D|-00000-x-0~-7~-7~-x-5~-|-9999-7777-5-----7777-|

Guitar 2
e|-14p10-14p10-12p9-15p10-|-14p10-14p10-12p9-12p9-15p10-15p10-12p9-12p9-|
B|------------------------|---------------------------------------------|
G|------------------------|---------------------------------------------|
D|------------------------|---------------------------------------------|
A|------------------------|---------------------------------------------|
D|---------------------4x-|---------------------------------------------|

Re-Intro:

Guitar 1                                     Guitar 2
e|-----------------------------------------||-----------------------------------------------------|
B|-----------------------------------------||-------------.------.-------.-------.-----.----------|
G|------.------.-------------.------.------||-11-12-11-9-77---9999--111111--777777--9999-x-<7.8>~-|
D|-000000---7777-----.--000000---7777----.-||--------------------------------------------x--------|
A|-000000---7777---555--000000---7777---55-||--9-10--9-7-55---7777--9-9-9---555555--7777----------|
D|-000000---7777---555--000000---7777---55-||-------------------------------000000--7777----------|
                                        **
Verse 2:

Guitar 1
e|--------------|------------------2x-|---------|------------------4x-|----------|
B|--------------|---------------------|---------|---------------------|----------|
G|--------------|---------------------|-(pause)-|------.------.-----.-|-2~-------|
D|--(silence)---|------.------.-----.-|---------|-000000---7777---555-|-2~-------|
A|--------------|-000000---7777---555-|---------|-000000---7777---555-|-0~-------|
D|--------------|-000000---7777---555-|---------|-000000---7777---555-|----------|
                  ******   ****   ***
Guitar 2
e|--------000000-------555555-000000--------------000000-------555555----------|
B|-----------------.-------------------.----------------------------.----------|
G|-777777-777777-6/7---777777-777777-6/7---777777-777777-6/7---777777--(pause)-|
D|-----------------------------------------------------------------------------|
A|-555555-555555-4/5---555555-555555-4/5---555555-555555-4/5---555555----------|
D|-----------------------------------------------------------------------------|

Guitar 2:
e|-------------------------------2x-|--------------------------------------|
B|-7---7---7---7---5---5---8---8----|--------------------------------------|
G|---7---7---7---7---6---6---7---7--|-9~--------------7~\6~--12\11~\9~\7~--|
D|----------------------------------|--------------------------------------|
A|----------------------------------|-7~--------------5~\4~--10\9~-\7~\5~--|
D|----------------------------------|--------------------------------------|
     *   *   *   *   *   *   *   *
Repeat:
Chorus - first bar ONLY

Bridge:

Guitar 1
e|------------------3x-|-------------------|
B|---------------------|-------------------|
G|------.------.-----.-|------.------------|
D|-000000---7777---555-|-000000---777777~\-|
A|-000000---7777---555-|-000000---777777~\-|
D|-000000---7777---555-|-000000---777777~\-|

Guitar 2 (solo thing)
e|---17------------0000-------------------000---------|-10---|-12---12---14--14---|-15--15--14~\-||
B|---------88-7777------7777-10-10-10-777-----777-----|---10-|---10---10---10--10-|---10--10-----||
G|-14---77-77-7777-7777-7777-7--7--7--777-777-777-9p7-|------|--------------------|--------------||
D|----------------------------------------------------|------|--------------------|--------------||
A|----------------------------------------------------|------|--------------------|--------------||
D|----------------------------------------------------|---4x-|-----------------1.-|-----------2.-||
                                                        ^==I did this wrong in my cover sorry!==^
Final Chorus:

Guitar 1
e|------------------------------------------------------------------|--------------------2x-|
B|------------------------------------------------------------------|-----------------------|
G|------(silence)---------------------------------------------------|-----------------------|
D|------------------------00000-x-0~-7~-7~-x-5~--00000-x-0~---------|-00000-x-0~-7~-7~-x-5~-|
A|------------------------00000-x-0~-7~-7~-x-5~--00000-x-0~-(pause)-|-00000-x-0~-7~-7~-x-5~-|
D|------------------------00000-x-0~-7~-7~-x-5~--00000-x-0~---------|-00000-x-0~-7~-7~-x-5~-|

Guitar 1 cont'd
e|------------------------------------------------------------------------------------------|
B|------------------------------------------------------------------------------------------|
G|------------------------------------------------------------------------------------------|
D|-00000-x-7~\-7~-7~-x-5~-00000-x-0~-7~-7~-x-5~--00000-x-0~-7~-7~-5~-5~-9999-7777-5555-7777-|
A|-00000-x-----7~-7~-x-5~-00000-x-0~-7~-7~-x-5~--00000-x-0~-7~-7~-5~-5~-9999-7777-5555-7777-|
D|-00000-x-----7~-7~-x-5~-00000-x-0~-7~-7~-x-5~--00000-x-0~-7~-7~-5~-5~-9999-7777-5555-7777-|

Guitar 2
e|-22~~~~~~~~~~----------|-14p10-14p10-12p9-15p10-14p10-14p10---------|-14p10-14p10-12p9-15p10-|
B|-22~~~~19~~~~----------|--------------------------------------------|------------------------|
G|--------------14141414-|------------------------------------(pause)-|------------------------|
D|-----------------------|--------------------------------------------|------------------------|
A|--------------12121212-|--------------------------------------------|------------------------|
D|-----------------------|--------------------------------------------|---------------------4x-|
   ^Feedback^
Guitar 2 cont'd
e|-14p10-14p10-12p9-12p9-15p10-15p10-12p9-12p9-|
B|---------------------------------------------|
G|---------------------------------------------|
D|---------------------------------------------|
A|---------------------------------------------|
D|---------------------------------------------|

Outro:

Guitar 1
e|-------------------------------------------------------------------------------------|
B|-------------------------------------------------------------------------------------|
G|------.------.-----.-----------------------------------------------------------------|
D|-000000---7777---555--000000---7777-------000000---7777---555--000000---7777---------|
A|-000000---7777---555--000000---7777---55~-000000---7777---555--000000---7777---00-5~-|
D|-000000---7777---555--000000---7777---55~-000000---7777---555--000000---7777---00-5~-|
                                        **                                       **
Guitar 2
e|------------------------------------------------|-----1.-|-----2.-||
B|-------------.------.---------.-------.-----.---|--------|--------||
G|-11-12-11-9-77---9999--11-11-11--777777--9999-x-|-(7.8)~-|-x-11~\-||
D|----------------------------------------------x-|--------|-x------||
A|--9-10--9-7-55---7777--9--9--9---555555--7777---|--------|---9~\--||
D|---------------------------------000000--7777---|--------|--------||

I also hear this during the outro as guitar 3, which gets louder and softer. Not really important 
but I hear it so I added it here:

e|-----------------------------|
B|-----------------------------|
G|-14--x--14--x----------------|
D|-----x------x---etc.---------|
A|-12--x--12--x----------------|
D|-----------------------------|
_______________________________________________________________

(#) - natural harmonic
p - pull-off
/ or \ - slide to and from a note
xxx - mute
* - palm mute
Suggest correction
Creating personal tab
Creating personal tab
You can edit any tab online and save it as your Personal.

You can edit, replace or remove any tab part or add personal notes – all changes will be seen only by you.

Personal tabs can be accessed anytime from any device, even offline.
Learn more »
Give kudos to tab author, rate the tab!
1 2 3 4 5
comments
print report bad tab
guest
You may want to rate the tab now too:
select rating
Wanna post a correction for this tab? Suggest correction