Oops, an error
Loading. Please wait.

Outer Space Carry On bass

1,777 views 12 this week
3 commentsread comments
1 2 3 4 5
x 9
add to favorites
×
Save as Personal and add changes to this tab that will be seen only by you. Learn more ›
×
You can save this tab as Personal to edit and correct it or add notes. All changes will be seen only by you. Learn more »
launch autoscroll
font size
0
reset
guitar tuner
edit
Autoscroll
slow
fast
+/-
esc
set tempo
stop
Hey guys! So this is my very first bass tab, and one of my favorites off of SGFG. I noticed that there 
weren't any bass tabs for this song on here, and I did this by ear. If you feel like there is anything
that can be corrected, please let me know. Hope you guys enjoy it!

[Intro]

G|---------------------------------------------------------------------------|
D|---------------------------------------------------------------------------|
A|--5---0-----------5---0-----------2---0-----------5---0--------------------|
E|----------3---------------3---------------3---------------3----------------|


[Verse](Hand and the Rain...) {0:34}

G|---------------------------------------------------------------------------|
D|---------------------------------------------------------------------------|
A|----5-5-5-5-5-5\------5-5-5-5-5\--------------5--5--5--5--5--5-------------|
E|---------------------------------------------------------------------------|



[Chorus]

G|------------------------------------------------------------------------------------|
D|------------------------------------------------------------------------------------|
A|--2--2--2--2--2--2------------------------5--5--5--5--5--5----0--0--0--0--0--0------|
E|----------------------3--3--3--3--3--3----------------------------------------------|

G|------------------------------------------------------------------------------------|
D|------------------------------------------------------------------------------------|
A|--2--2--2--2--2--2--------------10--9--7--5--5--5--5--5--5--------------------------|
E|----------------------3--3--3---------------------------------5--5--5--5--5--5------|

G|------------------------------------------------------------------------------------|
D|------------------------------------------------------------------------------------|
A|--2--2--2--2--2--2----3--3--3--3--3--3----5--5--5--5--5--5/----12--12--12--12\------|
E|------------------------------------------------------------------------------------|

G|------------------------------|
D|------------------------------|
A|--5---0-----------5---0-------|
E|----------3---------------3---|

[Verse 2] (In search of castaways...){1:22}

G|--------------------------------------------------------------|
D|----------------------------4---------------------------------|
A|----10--9--7---5-5--5----5-----5--2---------------5--3--------|
E|-------------------------------------3-3--3----3--------------|

G|--------------------------------------------------------------|
D|--------------------------------------------------------------|
A|----2-2--2----2--3--2--0-----5-5-5-5-5\-----5-5-5-5-5\--------|
E|--------------------------------------------------------------|

G|--------------------------|
D|--------------------------|
A|-----5--5--5--5--5--5-----|
E|--------------------------|

[Chorus]

G|------------------------------------------------------------------------------------|
D|------------------------------------------------------------------------------------|
A|--2--2--2--2--2--2------------------------5--5--5--5--5--5----0--0--0--0--0--0------|
E|----------------------3--3--3--3--3--3----------------------------------------------|

G|------------------------------------------------------------------------------------|
D|------------------------------------------------------------------------------------|
A|--2--2--2--2--2--2--------------10--9--7--5--5--5--5--5--5--------------------------|
E|----------------------3--3--3---------------------------------5--5--5--5--5--5------|

G|------------------------------------------------------------------------------------|
D|------------------------------------------------------------------------------------|
A|--2--2--2--2--2--2----3--3--3--3--3--3----5--5--5--5--5--5------0--0--0--0--0--0----|
E|------------------------------------------------------------------------------------|

G|------------------------------|
D|------------------------------|
A|------------------------------|
E|----3~------------------------|

(The Darkest Night...)

G|--------------------------------------------------------------------|
D|--------------------------------------------------------------------|
A|-----5~----0~----2~---------------5~----------0~--------------------| {X2}
E|---------------------------3~-----------3~--------------------------|

G|--------------------------------------------------------------------|
D|--------------------------------------------------------------------|
A|-----5~----0~----2~----2~----------5~----------0--------------------|
E|-----------------------------3~----------3~-------------------------|

G|---------------------------------------------------------------------------|
D|---------------------------------------------------------------------------|
A|----5-5-5-----0-0-0-----2-2-2-2-2-2-------------5-5-5-------- -------------|
E|---------------------------------------3-3-3-------------0-0-0----5-5-5----|

({3rd}Nothing like the rain...){3:05}

G|---------------------------------------------------------------------------|
D|---------------------------------------------------------------------------|
A|----5~----2~----0~--------10-9-7-5~----2~----0~----------10-9-7------------|
E|---------------------3~----------------------------3~----------------------|

G|-------------2--6----------------2----------------0-------|---------------------|
D|---------4-----------------0--4---------------2-----------|---------------------|
A|----5~----------------2~--------------0~---4--------------|--10-9-7-------------|(X2 up to|)
E|-------------------------------------------------------3~-|---------------------|




| /   Slide up
| \   Slide down
| ~   Hold

************************************

            
            
Suggest correction
Creating personal tab
Creating personal tab
You can edit any tab online and save it as your Personal.

You can edit, replace or remove any tab part or add personal notes – all changes will be seen only by you.

Personal tabs can be accessed anytime from any device, even offline.
Learn more »
comments
print report bad tab
3 comments total.
0 reply
daniharvey 40 Jul 16, 2016 01:42 AM

really good. great job!

0 reply
aparker16 16 Feb 26, 2017 08:55 PM

thanks really cool song and thanks

guest
You may want to rate the tab now too:
select rating
Wanna post a correction for this tab? Suggest correction