Oops, an error
Loading. Please wait.

Over And Out tab

version 1
version 1

Whole song

2,123 views 12 this week
no commentswrite comment
1 2 3 4 5
x 6
add to favorites
×
Save as Personal and add changes to this tab that will be seen only by you. Learn more ›
×
You can save this tab as Personal to edit and correct it or add notes. All changes will be seen only by you. Learn more »
launch autoscroll
font size
0
reset
how to read this tab
guitar tuner
edit
Autoscroll
slow
fast
+/-
esc
set tempo
stop
-----------------------------------------------------------------------------
                 OVER AND OUT - 5 Seconds Of Summer
-----------------------------------------------------------------------------
Tuning: Drop D (DADGBe)

Some parts of this song were quite tricky to tab at first. Very different 5SOS song, especially the bridge.
The song reminds me of Old Scars / Future Hearts by All Time Low also. Anyway hope this helps! Tab should be
90-95% accurate, some of the lead guitar parts may be off, I couldn't hear them too well.

My guitar cover on YouTube: https://www.youtube.com/watch?v=Jy4-6htHOLk

Guitar 1 - Luke Hemmings
Guitar 2 - Michael Clifford

Intro Riff (Guitar 1 only):          V Delay effect here
e|-------------------------------------------------------------|
B|-------------------------------------------------------------|
G|-------------------------------------------------------------|
D|-------------------------------------------------------------|
A|-5-5-5-5-5-5-----------------------------------.--.--.--.--.-|
D|-------------5-7-8-8-8-8-8-8-7-5-5-5-5-5-5-3-5-7--7--7--7--7-|

Full Band Intro:

Guitar 1, 2x
e|-------------------------------------------------------------------|
B|-------------------------------------------------------------------|
G|-------------------------------------------------------------------|
D|-------------------------------------------------------------------|
A|-5-5-5-5-5-5---------------------------------------------------8-7-|
D|-------------5-7-8-8-8-8-8-8-7-5-5-5-5-5-5-5-3-5-7-7-7-7-7-7-7-----|

Guitar 2 (electronic synth thing transcribed to guitar), 2x:
e|-10-10-10-10-10-10-----10-10-10-10-10-10--10-10-10-10-10-10--10-12-12-12-12-12-12-12-12-|
B|------------------11-13-----------------13-----------------13---------------------------|
G|----------------------------------------------------------------------------------------|
D|----------------------------------------------------------------------------------------|
A|----------------------------------------------------------------------------------------|
D|----------------------------------------------------------------------------------------|

Verse:
Guitar 1                  0:27 V
e|------------------------|---10-|---12--12---------10-|---10-|-12~\-|
B|------------------------|-10---|-10--10--13-10--10---|-10---|------|
G|---------(silence)------|------|--------------12-----|------|------|
D|------------------------|------|---------------------|------|------|
A|------------------------|------|---------------------|------|------|
D|------------------------|--12x-|---------------------|--12x-|------|
                             * *   * *  * * *  * * * *   * * 
Guitar 2                  0:27 V
e|-10~~~~~~~~~~~~---------|-----------------------------------------------|--------------1.-|-2.-||
B|------------------------|-----------------------------------------------|-----------------|----||
G|--------(silence)-------|-----------------------------------------------|-----------------|----||
D|------------------------|-----------------------------------------------|-----------------|----||
A|------------------------|-5-5-5-5-5-5-----------------------------------|-----------------|-7\-||
D|------------------------|-------------5-7-8-8-8-8-8-8-7-5-5-5-5-5-5-3-5-|-7-7-7-7-7-7-7-7-|-7\-||
                            * * * * * * * * * * * * * * * * * * * * * * *   * * * * * * * *
Chorus:

Guitar 1
e|-----------------------------------------------------------------------------------------------------|
B|-------5-6~\-------------------------5-6~\-----------------------------------------------------------|
G|-7~\---5-7~\----------5~---5555-3~---5-7~\----------12-----3--------------5-----3--------------5-----|
D|-7~\---7-0~\---3~---3-5~---5555-3~---7-0~\---3~---3-----x8-3--x16-3-----x-5--x8-3--x16-3-----x-5--x7-|
A|-5~\-----------3~---3-3~---3333-1~-----------3~---3-10-----1------3--x7-x-3-----1------3--x7-x-3-----|
D|---------------3~---3------------------------3~---3---------------3-----x--------------3-----x-------|

Guitar 2
e|------------------------------------------------------------13~-12------------13~-12~-10--12~--------|
B|-------1-3~\-------------------------1-3~\------------------------15-13--13~------------13----10~----|
G|-10~---2-3~\---5~-----5~---5555-10~--2-3~\---5~-----5------------------14------------------------12~-|
D|---------------3~---3-5~---5555--------------3~---3-5--x8--------------------------------------------|
A|-8~------1~\---3~---3-3~---3333--8~----1~\---3~---3-3------------------------------------------------|
D|---------------3~---3------------------------3~---3--------------------------------------------------|

Guitar 2 cont'd (very hard to hear)
e|-13~-12-10-12-10-12----12-10-12-10-------12-10-12-10/15-13~-12-10-12-10---|
B|-------------------13~------------13-10~-------------------------------13-|
G|--------------------------------------------------------------------------|
D|--------------------------------------------------------------------------|
A|--------------------------------------------------------------------------|
D|--------------------------------------------------------------------------|

Re-Intro:

Guitar 1                                     Guitar 2
e|-----------------------------------------||-----------------------------------------|
B|-----------------------------------------||-666666-----333333-----------------------|
G|-----------------------------------------||--------3-5--------5-333333-2-3-55555555-|
D|-----------------------------------------||-----------------------------------------|
A|-555555----------------------------------||-----------------------------------------|
D|--------5-7-888888-7-555555-3-5-77777777-||-----------------------------------------|

Verse 2:

Guitar 1
e||------5-------5---|-----6---|-----6-------8~-----8~-||---10-|---12--12---------10-|---10-|-12~\-|
B||o---6---6---6-.---|---6---6-|---6-.-----8------8---o||-10---|-10--10--13-10--10---|-10---|------|
G||--7-------7-------|-7-------|-7-------9------9------||------|--------------12-----|------|------|
D||------------------|---------|-----------------------||------|---------------------|------|------|
A||o-----------------|---------|----------------------o||------|---------------------|------|------|
D||------------------|------3x-|-----------------------||--12x-|---------------------|--12x-|------|
     =====================clean tone==================     * *   * *  * * *  * * * *   * * 
Guitar 2                  0:27 V
e|----------------------------|---------------------|--------------1./2./3.-|----------4.-||
B|----------------------------|---------------------|-----------------------|-------------||
G|---(silence)----------------|---------------------|-----------------------|-------------||
D|----------------------------|-77-777--------------|-----------------------|-------------||
A|----------------------------|-55-555-5-7-88-888-7-|-55-555-3-5-77-777-5-3-|-55555555-7\-||
D|----------------------------|--------5-7-88-888-7-|-55-555-3-5-77-777-5-3-|-55555555-7\-||
                                ** *** * * ** *** *   ** *** * * ** *** * *   ********
Repeat:
Full Band Intro 2x

Bridge/Last Chorus:

Guitar 1, 2x (clean tone)                                    Back to distortion:
e|------------------------------------------------------2x-|----------------------------------------|
B|---------------------------------------------------------|-----------.--.-------------------------|
G|-----2~-----2~-----2~-----2~-----2~-----2~-----2~-----2~-|-(silence)-9--9--x-3--------------5-----|
D|---3------3------3------3------3------3------3------3----|-----------------x-3--x16-3-----x-5--x8-|
A|-5------5------1------1--------------------3------3------|-----------7--7--x-1------3--x7-x-3-----|
D|-----------------------------5------5--------------------|--------------------------3-----x-------|

Guitar 2 (comes in when guitar 1 second time)
e|---------------------------------------------------------|-------------------------------------------|
B|----------------------------------------------------.----|------------.---.--------------------------|
G|-----------------------------------------------5555-3----|-----------12--12--x-7------5-------12-----|
D|-------------------5-----7-----------------55555555-3----|-(silence)---------x----x16----x7-x-----x8-|
A|-0--x8-8--x8-5--x8-3--x8-5--x8-8--x8-5--x8-33333333-1----|-----------10--10--x-5------3-----x-10-----|
D|-0-----8-----5-----------------8-----5-------------------|----------------------------------x--------|
   *     *     *     *     *     *     *     ***Grad. lift palm mute
Last Chorus Pt. 2 (both guitars):
e|-------------------------------------------------------------------|
B|-.-----.---------------------------.----.--------------------------|
G|-3-----3---3~----.-------5~-5~-5~--3----3---3~----.-------5~-5~-5~-|
D|-3---333---3~-3333--3~-555~-5~-5~-33--333---3~-3333--3~-555~-5~-5~-|
A|-1---111---1~-3333--3~-333~-3~-3~-11--111---1~-3333--3~-333~-3~-3~-|
D|--------------3333--3~-------------------------3333--3~------------|
       **       ****     **         *   **       ****     **
Repeat:
Full Band Intro 2x
_____________________________________________________________________
/ or \ - slide to and from a note
* - palm mute
. - release (stop) note from ringing out after playing it
||o---o|| - repeat everything in between once
Suggest correction
Creating personal tab
Creating personal tab
You can edit any tab online and save it as your Personal.

You can edit, replace or remove any tab part or add personal notes – all changes will be seen only by you.

Personal tabs can be accessed anytime from any device, even offline.
Learn more »
comments
print report bad tab
guest
You may want to rate the tab now too:
select rating
Wanna post a correction for this tab? Suggest correction