Oops, an error
Loading. Please wait.

Over And Over Tab

3,700 views 3 this week
no commentswrite comment
1 2 3 4 5
1 last vote to show rating
add to favorites
launch autoscroll
font size
0
reset
how to read this tab
guitar tuner
Autoscroll
slow
fast
+/-
esc
set tempo
stop
Help us to improve Ultimate-Guitar.com Take our survey!
×
Author
Capo
2nd fret
Hiii! I hope this is ok! love 5sos so much!! please vote this tab :):)
and ask me or follow me on twitter @FatimaKTBSPA
________________________________________________

Capo 2nd fret.

[Chorus]
A
You know something I don't
E
It's not like you to be cold
F#m                  D
Every night replayed over and over
A
You say things that I don't
E
You make me feel alone
F#m                  D
Every night replayed over and over


D
You say it's no concern
Dsus2                   A      Asus4
And everything's alright
D
Sometimes we all get burnt
Dsus2                   A      Asus4
And then we try to hide
D
And I know, and I know, and I know
                Dsus2
And I know we're wrong
                             A      Asus4
We should have let things slide

[Bridge]
A
And when the night gets dark
E
And there's no way back
F#m
I'll call your name
D
But it's fading, we're fading

[Chorus]
A
You know something I don't
E
It's not like you to be cold
F#m                  D
Every night replayed over and over
A
You say things that I don't
E
You make me feel alone
F#m                  D
Every night replayed over and over


D
So many times you say
Dsus2                   A      Asus4
You're staying out tonight

[Michael solo]
----------------------------------------------------------|
--3 h 2---3 h 2---0--2------------3 h 2---3 h 2---0-------|
----------------------------------------------------------|
----------------------------------------------------------|
----------------------------------------------------------|
----------------------------------------------------------|

D
I wish that I could just walk away
Dsus2                   A      Asus4
But I won't leave you behind

------5---7---9---7---5----------------5-----7-----9------|
--5--------------------------------5----------------------|
----------------------------------------------------------|
----------------------------------------------------------|
----------------------------------------------------------|
----------------------------------------------------------|
[Bridge]

-----------5-------5-------5-------5----------------------|
---------------5-------5-------5-------5------------------|
----------------------------------------------------------|
----------------------------------------------------------|
----------------------------------------------------------|
----------------------------------------------------------|
A
And when the night gets dark
-----------7-------7-------7-------7----------------------|
---------------5-------5-------5-------5------------------|
----------------------------------------------------------|
----------------------------------------------------------|
----------------------------------------------------------|
----------------------------------------------------------|
E
And there's no way back
-----------5-------5-------5-------5----------------------|
---------------5-------5-------5-------5------------------|
----------------------------------------------------------|
----------------------------------------------------------|
----------------------------------------------------------|
----------------------------------------------------------|
F#m
I'll call your name
-----------7-------7-------7-------7----------------------|
---------------5-------5-------5-------5------------------|
----------------------------------------------------------|
----------------------------------------------------------|
----------------------------------------------------------|
----------------------------------------------------------|
D
But it's fading, we're fading


[Chorus]
A
You know something I don't
E
It's not like you to be cold
F#m                  D
Every night replayed over and over
A
You say things that I don't
E
You make me feel alone
F#m                  D
Every night replayed over and over

A E F#m D

E
Well I won't be back no more
Just like I did before
F#m                      D
Always thinkin that it's gonna be alright
E
I'm gonna start again
This time I won't pretend
F#m                       D
That you're coming back into my life


[Chorus]
A
You know something I don't
E
It's not like you to be cold
F#m                  D
Every night replayed over and over


A
You know something I don't
E
It's not like you to be cold
F#m                  D
Every night replayed over and over
A
You say things that I don't
E
You make me feel alone
F#m                  D
Every night replayed over and over
Suggest correction
Give kudos to tab author, rate the tab!
1 2 3 4 5
comments
print report bad tab
guest
You may want to rate the tab now too:
select rating
Wanna post a correction for this tab? Suggest correction