Oops, an error
Loading. Please wait.

Over And Over Chords

version 3
version 3

Whole song

2,846 views 13 this week
no commentswrite comment
1 2 3 4 5
please rate
add to favorites
launch autoscroll
font size
0
reset
transpose
0
reset
simplify chords
display chords
guitar tuner
Tab Pro tools
  • play this tab
  • loop segment
  • change instrument
  • show fretboard
  • metronome
×
Best way to learn
"Over And Over"
Autoscroll
slow
fast
+/-
esc
set tempo
stop
Contributor
Difficulty
Capo
intermediate
2nd fret
Hiii! I hope this is ok! please vote this tab :):)
and ask me or follow me on twitter @mashtonishing

I already uploaded another version (Capo 2)
http://tabs.ultimate-guitar.com/0-9/5_seconds_of_summer/over_and_over_tab.htm
 but I think this is the way Luke actually plays this song! 
________________________________________________

 Capo 4nd fret.

      CHORDS:

  G   Gsus2  Em/D   C
--3--|--3--|--3--|--3--|
--3--|--3--|--3--|--3--|
--0--|--2--|--0--|--0--|
--0--|--0--|--2--|--2--|
--2--|--0--|--2--|--3--|
--3--|--2--|--0--|--0--|
 

[Chorus]
G
You know something I don't
Gsus2
It's not like you to be cold
Em/D                  C
Every night replayed over and over
G
You say things that I don't
Gsus2
You make me feel alone
Em/D                 C
Every night replayed over and over


C
You say it's no concern
                     G      
And everything's alright
C
Sometimes we all get burnt
                      G      
And then we try to hide
C
And I know, and I know, and I know
                
And I know we're wrong
                             G      
We should have let things slide

[Bridge]
G
And when the night gets dark
Gsus2
And there's no way back
Em/D
I'll call your name
C
But it's fading, we're fading

[Chorus]
G
You know something I don't
Gsus2
It's not like you to be cold
Em/D                  C
Every night replayed over and over
G
You say things that I don't
Gsus2
You make me feel alone
Em/D                 C
Every night replayed over and over


C
So many times you say
                        G      
You're staying out tonight

[Michael solo]
----------------------------------------------------------|
--1---0---1---0-------0-----------1---0---1---0-----------|
------------------2-------------------------------2-------|
----------------------------------------------------------|
----------------------------------------------------------|
----------------------------------------------------------|

C
I wish that I could just walk away
                          G     
But I won't leave you behind

------3---5---7---5---3----------------3----5-----7-------|
--3--------------------------------3----------------------|
----------------------------------------------------------|
----------------------------------------------------------|
----------------------------------------------------------|
----------------------------------------------------------|
[Bridge]

-----------3-------3-------3-------3----------------------|
---------------3-------3-------3-------3------------------|
----------------------------------------------------------|
----------------------------------------------------------|
----------------------------------------------------------|
----------------------------------------------------------|
G
And when the night gets dark
-----------5-------5-------5-------5----------------------|
---------------3-------3-------3-------3------------------|
----------------------------------------------------------|
----------------------------------------------------------|
----------------------------------------------------------|
----------------------------------------------------------|
Gsus2
And there's no way back
-----------3-------3-------3-------3----------------------|
---------------3-------3-------3-------3------------------|
----------------------------------------------------------|
----------------------------------------------------------|
----------------------------------------------------------|
----------------------------------------------------------|
Em/D
I'll call your name
-----------5-------5-------5-------5----------------------|
---------------3-------3-------3-------3------------------|
----------------------------------------------------------|
----------------------------------------------------------|
----------------------------------------------------------|
----------------------------------------------------------|
C
But it's fading, we're fading


[Chorus]
G
You know something I don't
Gsus2
It's not like you to be cold
Em/D                  C
Every night replayed over and over
G
You say things that I don't
Gsus2
You make me feel alone
Em/D                 C
Every night replayed over and over

G Gsus2 Em/D C

Gsus2
Well I won't be back no more
Just like I did before
Em/D                      C
Always thinkin that it's gonna be alright
Gsus2
I'm gonna start again
This time I won't pretend
Em/D                       C
That you're coming back into my life


[Chorus]
G
You know something I don't
Gsus2
It's not like you to be cold
Em/D                  C
Every night replayed over and over


G
You know something I don't
Gsus2
It's not like you to be cold
Em/D                  C
Every night replayed over and over
G
You say things that I don't
Gsus2
You make me feel alone
Em/D                 C
Every night replayed over and over
comments
We did not receive enough feedback on this tab! Please rate:
print report bad tab
1 2 3 4 5
I want to post or [tab]
guest
You may want to rate the tab now too:
select rating
Please do not post tabs as comments. Select "correction" instead!